>
 >
Only In Dreams

Only In Dreams Guitar Tabs

Weezer - Only In Dreams chords, tabs, tablatures, lyrics

Guitar lessons | Add/correct | Request | Top 50 tabs Artists:  A B C D E F G H I J K L M N O P Q R S T U V W X Y Z 0-9

Only In Dreams Guitar Tabs – Weezer

CD, Sheet music, Poster

Do you like Only In Dreams? Share with your friends now
Bass TabsBass Tabs v2Bass Tabs v3Bass Tabs v4ChordsTabsTabs v2Tabs v3Ukulele
submitted by someone else

[This was created with TabIt for Windows version 1.53]

Eb :--------------------|------------------|-------------------|
Bb :--------------------|------------------|-------------------|
Gb :--------------------|------------------|-------------------|
Db :--------------------|------------------|-------------------|
Ab :--------------------|------------------|-------------------|
Eb :--------------------|------------------|-------------------|

Eb :--------------------|------------------|-------------------|
Bb :--------------------|------------------|-------------------|
Gb :--------------------|------------------|-------------------|
Db :--------------------|------------------|-------------------|
Ab :--------------------|------------------|-------------------|
Eb :--------------------|------------------|-------------------|

                                                               
Gb :--------------------|------------------|-------------------|
Db :------0-(2)2-2-2-2-0|*---------0-0-*---|------0-2-2-2-2-2-0|
Ab :2-2-2-*-------------|0-0-0-0-0-*---3-3-|2-2-2-*------------|
Eb :--------------------|------------------|-------------------|


Eb :------------------|3-3-3-3----3-3-3-3--|------------------|
Bb :------------------|3-3-3-3----3-3-3-3--|----------1-0-1-0-|
Gb :------------------|0-0-0-0----0-0-0-0--|2-2-2-2---0-0-0-0-|
Db :------------------|0-0-0-0----0-0-0-0--|2-2-2-2---2-2-2-2-|
Ab :------------------|2-2-2-2----2-2-2-2--|0-0-0-0---3-3-3-3-|
Eb :------------------|3-3-3-3----3-3-3-3--|*-----------------|

Eb :------------------|--------------------|------------------|
Bb :------------------|--------------------|------------------|
Gb :------------------|--------------------|------------------|
Db :------------------|--------------------|------------------|
Ab :------------------|--------------------|------------------|
Eb :------------------|--------------------|------------------|

                                                              
Gb :------------------|--------------------|------------------|
Db :*---------0-0-*---|------0-(2)2-2-2-2-0|*---------0-0-*---|
Ab :0-0-0-0-0-*---3-3-|2-2-2-*-------------|0-0-0-0-0-*---3-3-|
Eb :------------------|--------------------|------------------|


Eb :3-3-3-3---3-3-3-3--|-------------------------|-3-3-3-3---3-3-3-3--|
Bb :3-3-3-3---3-3-3-3--|----------1--0----1----0-|-3-3-3-3---3-3-3-3--|
Gb :0-0-0-0---0-0-0-0--|2-2-2-2---0--0----0----0-|-0-0-0-0---0-0-0-0--|
Db :0-0-0-0---0-0-0-0--|2-2-2-2---2--2----2----2-|-0-0-0-0---0-0-0-0--|
Ab :2-2-2-2---2-2-2-2--|0-0-0-0---3--3----3----3-|-2-2-2-2---2-2-2-2--|
Eb :3-3-3-3---3-3-3-3--|*------------------------|-3-3-3-3---3-3-3-3--|

Eb :-------------------|-------------------------|--------------------|
Bb :-------------------|-------------------------|--------------------|
Gb :-------------------|-------------------------|12-----0-----0-*-0--|
Db :-------------------|------------12--*---12---|-*---0-*-------2-*--|
Ab :-------------------|---------------12----*---|--------------------|
Eb :-------------------|-------------------------|--------------------|

                                                                      
Gb :-------------------|-------------------------|--------------------|
Db :------0-2-2-2-2-2-0|*---------0--0----*------|-------0-2-2-2-2-2-0|
Ab :2-2-2-*------------|0-0-0-0-0-*-------3----3-|-2-2-2-*------------|
Eb :-------------------|-------------------------|--------------------|


Eb :------------------|3-3-3-3---3-3-3-3--|------------------|
Bb :----------1-0-1-0-|3-3-3-3---3-3-3-3--|----------1-0-1-0-|
Gb :2-2-2-2---0-0-0-0-|0-0-0-0---0-0-0-0--|2-2-2-2---0-0-0-0-|
Db :2-2-2-2---2-2-2-2-|0-0-0-0---0-0-0-0--|2-2-2-2---2-2-2-2-|
Ab :0-0-0-0---3-3-3-3-|2-2-2-2---2-2-2-2--|0-0-0-0---3-3-3-3-|
Eb :*-----------------|3-3-3-3---3-3-3-3--|*-----------------|

Eb :------------------|-------------------|------------------|
Bb :------------------|-------------------|------------------|
Gb :--0-2-0---5-4-5-4-|0-----0-----0-*-0--|--0-2-0---3-4-3-4-|
Db :------------------|----2-*-------2-*--|------------------|
Ab :------------------|-------------------|------------------|
Eb :------------------|-------------------|------------------|

                                                             
Gb :------------------|-------------------|------------------|
Db :*---------0-0-*---|------0-2-2-2-2-2-0|*---------0-0-*---|
Ab :0-0-0-0-0-*---3-3-|2-2-2-*------------|0-0-0-0-0-*---3-3-|
Eb :------------------|-------------------|------------------|


Eb :3-3-3-3---3-3-3-3--|------------------|3-3-3-3---3-3-3-3--|
Bb :3-3-3-3---3-3-3-3--|----------1-0-1-0-|3-3-3-3---3-3-3-3--|
Gb :0-0-0-0---0-0-0-0--|2-2-2-2---0-0-0-0-|0-0-0-0---0-0-0-0--|
Db :0-0-0-0---0-0-0-0--|2-2-2-2---2-2-2-2-|0-0-0-0---0-0-0-0--|
Ab :2-2-2-2---2-2-2-2--|0-0-0-0---3-3-3-3-|2-2-2-2---2-2-2-2--|
Eb :3-3-3-3---3-3-3-3--|*-----------------|3-3-3-3---3-3-3-3--|

Eb :-------------------|------------------|-------------------|
Bb :-------------------|------------------|-------------------|
Gb :0---*-0-----0-*-0--|--0-2-0---5-4-5-4-|0---*-0-----0-*-0--|
Db :----2-*-------2-*--|------------------|----2-*-------2-*--|
Ab :-------------------|------------------|-------------------|
Eb :-------------------|------------------|-------------------|

                                                              
Gb :-------------------|------------------|-------------------|
Db :------0-2-2-2-2-2-0|*---------0-0-*---|------0-2-2-2-2-2-0|
Ab :2-2-2-*------------|0-0-0-0-0-*---3-3-|2-2-2-*------------|
Eb :-------------------|------------------|-------------------|


Eb :------------------|3-3-3-3---3-3-3-3--|------------------|
Bb :----------1-0-1-0-|3-3-3-3---3-3-3-3--|----------1-0-1-0-|
Gb :2-2-2-2---0-0-0-0-|0-0-0-0---0-0-0-0--|2-2-2-2---0-0-0-0-|
Db :2-2-2-2---2-2-2-2-|0-0-0-0---0-0-0-0--|2-2-2-2---2-2-2-2-|
Ab :0-0-0-0---3-3-3-3-|2-2-2-2---2-2-2-2--|0-0-0-0---3-3-3-3-|
Eb :*-----------------|3-3-3-3---3-3-3-3--|*-----------------|

Eb :------------------|-------------------|------------------|
Bb :------------------|-------------------|------------------|
Gb :--0-2-0---3-4-3-4-|----*--------------|------------------|
Db :------------------|-------------------|------------------|
Ab :------------------|-------------------|------------------|
Eb :------------------|-------------------|------------------|

                                                             
Gb :------------------|-------------------|------------------|
Db :*---------0-0-*---|------0-2-2-2-2-2-0|*---------0-0-*---|
Ab :0-0-0-0-0-*---3-3-|2-2-2-*------------|0-0-0-0-0-*---3-3-|
Eb :------------------|-------------------|------------------|


Eb :3-3-3-3---3-3-3-3--|------------------|3-3-3-3---3-3-3-3--|
Bb :3-3-3-3---3-3-3-3--|----------1-0-1-0-|3-3-3-3---3-3-3-3--|
Gb :0-0-0-0---0-0-0-0--|2-2-2-2---0-0-0-0-|0-0-0-0---0-0-0-0--|
Db :0-0-0-0---0-0-0-0--|2-2-2-2---2-2-2-2-|0-0-0-0---0-0-0-0--|
Ab :2-2-2-2---2-2-2-2--|0-0-0-0---3-3-3-3-|2-2-2-2---2-2-2-2--|
Eb :3-3-3-3---3-3-3-3--|*-----------------|3-3-3-3---3-3-3-3--|

Eb :-------------------|------------------|-------------------|
Bb :-------------------|------------------|-------------------|
Gb :-------------------|------------------|-------------------|
Db :-------------------|------------------|-------------------|
Ab :-------------------|------------------|-------------------|
Eb :-------------------|------------------|-------------------|

                                                              
Gb :-------------------|------------------|-------------------|
Db :------0-2-2-2-2-2-0|*---------0-0-*---|------0-2-2-2-2-2-0|
Ab :2-2-2-*------------|0-0-0-0-0-*---3-3-|2-2-2-*------------|
Eb :-------------------|------------------|-------------------|


Eb :------------------|3-3-3-3---3-3-3-3--|-------------------------|
Bb :----------1-0-1-0-|3-3-3-3---3-3-3-3--|----------1--0----1----0-|
Gb :2-2-2-2---0-0-0-0-|0-0-0-0---0-0-0-0--|2-2-2-2---0--0----0----0-|
Db :2-2-2-2---2-2-2-2-|0-0-0-0---0-0-0-0--|2-2-2-2---2--2----2----2-|
Ab :0-0-0-0---3-3-3-3-|2-2-2-2---2-2-2-2--|0-0-0-0---3--3----3----3-|
Eb :*-----------------|3-3-3-3---3-3-3-3--|*------------------------|

Eb :------------------|-------------------|-------------------------|
Bb :------------------|-------------------|-------------------------|
Gb :------------------|-------------------|-------------------------|
Db :------------------|-------------------|------------12--*---12---|
Ab :------------------|-------------------|---------------12----*---|
Eb :------------------|-------------------|-------------------------|

                                                                    
Gb :------------------|-------------------|-------------------------|
Db :*---------0-0-*---|------0-2-2-2-2-2-0|*---------0--0----*------|
Ab :0-0-0-0-0-*---3-3-|2-2-2-*------------|0-0-0-0-0-*-------3----3-|
Eb :------------------|-------------------|-------------------------|


Eb :-3-3-3-3---3-3-3-3--|------------------|3-3-3-3---3-3-3-3--|
Bb :-3-3-3-3---3-3-3-3--|----------1-0-1-0-|3-3-3-3---3-3-3-3--|
Gb :-0-0-0-0---0-0-0-0--|2-2-2-2---0-0-0-0-|0-0-0-0---0-0-0-0--|
Db :-0-0-0-0---0-0-0-0--|2-2-2-2---2-2-2-2-|0-0-0-0---0-0-0-0--|
Ab :-2-2-2-2---2-2-2-2--|0-0-0-0---3-3-3-3-|2-2-2-2---2-2-2-2--|
Eb :-3-3-3-3---3-3-3-3--|*-----------------|3-3-3-3---3-3-3-3--|

Eb :--------------------|------------------|-------------------|
Bb :--------------------|------------------|-------------------|
Gb :12-----0-----0---0--|--0-2-0---5-4-5-4-|0-----0-----0---0--|
Db :-*---0---------2----|------------------|----2---------2----|
Ab :--------------------|------------------|-------------------|
Eb :--------------------|------------------|-------------------|

                                                               
Gb :--------------------|------------------|-------------------|
Db :-------0-2-2-2-2-2-0|*---------0-0-*---|------0-2-2-2-2-2-0|
Ab :-2-2-2-*------------|0-0-0-0-0-*---3-3-|2-2-2-*------------|
Eb :--------------------|------------------|-------------------|


Eb :------------------|3-3-3-3---3-3-3-3--|------------------|
Bb :----------1-0-1-0-|3-3-3-3---3-3-3-3--|----------1-0-1-0-|
Gb :2-2-2-2---0-0-0-0-|0-0-0-0---0-0-0-0--|2-2-2-2---0-0-0-0-|
Db :2-2-2-2---2-2-2-2-|0-0-0-0---0-0-0-0--|2-2-2-2---2-2-2-2-|
Ab :0-0-0-0---3-3-3-3-|2-2-2-2---2-2-2-2--|0-0-0-0---3-3-3-3-|
Eb :*-----------------|3-3-3-3---3-3-3-3--|*-----------------|

Eb :------------------|-------------------|------------------|
Bb :------------------|-------------------|------------------|
Gb :--0-2-0---3-4-3-4-|0-----0-----0---0--|--0-2-0---5-4-5-4-|
Db :------------------|----2---------2----|------------------|
Ab :------------------|-------------------|------------------|
Eb :------------------|-------------------|------------------|

                                                             
Gb :------------------|-------------------|------------------|
Db :*---------0-0-*---|------0-2-2-2-2-2-0|*---------0-0-*---|
Ab :0-0-0-0-0-*---3-3-|2-2-2-*------------|0-0-0-0-0-*---3-3-|
Eb :------------------|-------------------|------------------|


Eb :3-3-3-3---3-3-3-3--|------------------|----------------|
Bb :3-3-3-3---3-3-3-3--|----------1-0-1-0-|*---------------|
Gb :0-0-0-0---0-0-0-0--|2-2-2-2---0-0-0-0-|4-4-2-*---------|
Db :0-0-0-0---0-0-0-0--|2-2-2-2---2-2-2-2-|4-4-2-5-5-5-5-5-|
Ab :2-2-2-2---2-2-2-2--|0-0-0-0---3-3-3-3-|2-2-0-5-5-5-5-5-|
Eb :3-3-3-3---3-3-3-3--|*-----------------|------3-3-3-3-3-|

Eb :-------------------|------------------|----------------|
Bb :-------------------|------------------|----------------|
Gb :0-----0-----0---0--|--0-2-0---3-4-3-4-|----------------|
Db :----2---------2----|------------------|----------------|
Ab :-------------------|------------------|----------------|
Eb :-------------------|------------------|----------------|

                                          1:38             
Gb :-------------------|------------------|----------------|
Db :------0-2-2-2-2-2-0|*---------0-0-*---|----------------|
Ab :2-2-2-*------------|0-0-0-0-0-*---3-3-|2-2-0-*---------|
Eb :-------------------|------------------|------3-3-3-3-3-|


Eb :----------------|----------------|----------------|----------------|
Bb :----------------|*---------------|----------------|----------------|
Gb :5-5-4-2-2-2-2-2-|4-4-2-*---------|5-5-4-2-2-2-2-2-|*-----3-3-3-3-3-|
Db :5-5-4-2-2-2-2-2-|4-4-2-5-5-5-5-5-|5-5-4-2-2-2-2-2-|3-3-3-3-3-3-3-3-|
Ab :3-3-2-0-0-0-0-0-|2-2-0-5-5-5-5-5-|3-3-2-0-0-0-0-0-|3-3-3-1-1-1-1-1-|
Eb :*---------------|------3-3-3-3-3-|*---------------|1-1-1-*---------|

Eb :----------------|----------------|----------------|----------------|
Bb :----------------|----------------|----------------|----------------|
Gb :----------------|----------------|----------------|----------------|
Db :----------------|----------------|----------------|----------------|
Ab :----------------|----------------|----------------|----------------|
Eb :----------------|----------------|----------------|----------------|

                                                                       
Gb :----------------|----------------|----------------|----------------|
Db :----------------|----------------|----------------|----------------|
Ab :3-3-2-0-0-0-0-0-|2-2-0-*---------|3-3-2-0-0-0-0-0-|*-----1-1-1-1-1-|
Eb :*---------------|------3-3-3-3-3-|*---------------|1-1-1-*---------|


Eb :----------------|----------------|----------------|
Bb :----------------|*---------------|----------------|
Gb :*-----5-5-5-5-5-|4-4-2-*---------|5-5-6-7---------|
Db :5-5-5-5-5-5-5-5-|4-4-2-5-5-5-5-5-|5-5-6-7---------|
Ab :5-5-5-3-3-3-3-3-|2-2-0-5-5-5-5-5-|3-3-4-5---------|
Eb :3-3-3-*---------|------3-3-3-3-3-|*---------------|

Eb :----------------|----------------|----------------|
Bb :----------------|----------------|----------------|
Gb :----------------|----------------|----------------|
Db :----------------|----------------|----------------|
Ab :----------------|----------------|----------------|
Eb :----------------|----------------|----------------|

                                                      
Gb :----------------|----------------|----------------|
Db :----------------|----------------|----------------|
Ab :*-----3-3-3-3-3-|2-2-0-*---------|3-3-4-5---------|
Eb :3-3-3-*---------|------3-3-3-3-3-|*---------------|


Eb :-------------------|------------------|3-3-3-3------------|
Bb :-------------------|------------------|3-3-3-3---3-3-3-3--|
Gb :*------------------|------------------|0-0-0-0---0-0-0-0--|
Db :*------------------|------------------|0-0-0-0---0-0-0-0--|
Ab :*------------------|------------------|2-2-2-2---2-2-2-2--|
Eb :-------------------|------------------|3-3-3-3---3-3-3-3--|

Eb :-------------------|------------------|-------------------|
Bb :-------------------|------------------|-------------------|
Gb :-------------------|------------------|-------------------|
Db :-------------------|------------------|-------------------|
Ab :-------------------|------------------|-------------------|
Eb :-------------------|------------------|-------------------|

                                                              
Gb :-------------------|------------------|-------------------|
Db :------0-2-2-2-2-2-0|*---------0-0-*---|------0-2-2-2-2-2-0|
Ab :2-2-2-*------------|0-0-0-0-0-*---3-3-|2-2-2-*------------|
Eb :-------------------|------------------|-------------------|


Eb :-------------------------|--------------------|------------------|
Bb :2-2-2-2---1--0----1----0-|--------------------|------------------|
Gb :2-2-2-2---0--0----0----0-|--------------------|------------------|
Db :2-2-2-2---2--2----2----2-|--------------------|------------------|
Ab :0-0-0-0---3--3----3----3-|--------------------|------------------|
Eb :*------------------------|--------------------|------------------|

Eb :-------------------------|--------------------|------------------|
Bb :-------------------------|--------------------|------------------|
Gb :-------------------------|12------------------|------------------|
Db :------------12--*---12---|-*------------------|------------------|
Ab :---------------12----*---|--------------------|------------------|
Eb :-------------------------|--------------------|------------------|

                                                                     
Gb :-------------------------|--------------------|------------------|
Db :*---------0--0----*------|-------0-2-2-2-2-2-0|*---------0-0-*---|
Ab :0-0-0-0-0-*-------3----3-|-2-2-2-*------------|0-0-0-0-0-*---3-3-|
Eb :-------------------------|--------------------|------------------|


Eb :-------------------|------------------|-------------------|
Bb :-------------------|------------------|-------------------|
Gb :-------------------|------------------|-------------------|
Db :-------------------|------------------|-------------------|
Ab :-------------------|------------------|-------------------|
Eb :-------------------|------------------|-------------------|

Eb :-------------------|------------------|-------------------|
Bb :-------------------|------------------|-------------------|
Gb :-------------------|------------------|-------------------|
Db :-------------------|------------------|-------------------|
Ab :-------------------|------------------|-------------------|
Eb :-------------------|------------------|-------------------|

                                                              
Gb :-------------------|------------------|-------------------|
Db :------0-2-2-2-2-2-0|*---------0-0-*---|------0-2-2-2-2-2-0|
Ab :2-2-2-*------------|0-0-0-0-0-*---3-3-|2-2-2-*------------|
Eb :-------------------|------------------|-------------------|


Eb :------------------|-------------------|-------------------------|
Bb :------------------|-------------------|-------------------------|
Gb :------------------|-------------------|-------------------------|
Db :------------------|-------------------|-------------------------|
Ab :------------------|-------------------|-------------------------|
Eb :------------------|-------------------|-------------------------|

Eb :------------------|-------------------|-------------------------|
Bb :------------------|-------------------|-------------------------|
Gb :------------------|-------------------|-------------------------|
Db :------------------|-------------------|------------12--*---12---|
Ab :------------------|-------------------|---------------12----*---|
Eb :------------------|-------------------|-------------------------|

                                                                    
Gb :------------------|-------------------|-------------------------|
Db :*---------0-0-*---|------0-2-2-2-2-2-0|*---------0--0----*------|
Ab :0-0-0-0-0-*---3-3-|2-2-2-*------------|0-0-0-0-0-*-------3----3-|
Eb :------------------|-------------------|-------------------------|


Eb :--------------------|------------------|-------------------|
Bb :--------------------|------------------|-------------------|
Gb :--------------------|------------------|-------------------|
Db :--------------------|------------------|-------------------|
Ab :--------------------|------------------|-------------------|
Eb :--------------------|------------------|-------------------|

Eb :--------------------|------------------|-------------------|
Bb :--------------------|------------------|-------------------|
Gb :12-----0-----0---0--|--0-2-0---5-4-5-4-|0-----0-----0---0--|
Db :-*---0---------2----|------------------|----2---------2----|
Ab :--------------------|------------------|-------------------|
Eb :--------------------|------------------|-------------------|

                                                               
Gb :--------------------|------------------|-------------------|
Db :-------0-2-2-2-2-2-0|*---------0-0-*---|------0-2-2-2-2-2-0|
Ab :-2-2-2-*------------|0-0-0-0-0-*---3-3-|2-2-2-*------------|
Eb :--------------------|------------------|-------------------|


Eb :------------------|-------------------|------------------|
Bb :------------------|-------------------|------------------|
Gb :------------------|-------------------|------------------|
Db :------------------|-------------------|------------------|
Ab :------------------|-------------------|------------------|
Eb :------------------|-------------------|------------------|

Eb :------------------|-------------------|------------------|
Bb :------------------|-------------------|------------------|
Gb :--0-2-0---3-4-3-4-|0-----0-----0---0--|--0-2-0---5-4-5-4-|
Db :------------------|----2---------2----|------------------|
Ab :------------------|-------------------|------------------|
Eb :------------------|-------------------|------------------|

                                                             
Gb :------------------|-------------------|------------------|
Db :*---------0-0-*---|------0-2-2-2-2-2-0|*---------0-0-*---|
Ab :0-0-0-0-0-*---3-3-|2-2-2-*------------|0-0-0-0-0-*---3-3-|
Eb :------------------|-------------------|------------------|


Eb :-------------------|------------------|----------------|
Bb :-------------------|------------------|*---------------|
Gb :-------------------|------------------|4-4-2-*---------|
Db :-------------------|------------------|4-4-2-5-5-5-5-5-|
Ab :-------------------|------------------|2-2-0-5-5-5-5-5-|
Eb :-------------------|------------------|------3-3-3-3-3-|

Eb :-------------------|------------------|----------------|
Bb :-------------------|------------------|----------------|
Gb :0-----0-----0---0--|--0-2-0---3-4-3-4-|----------------|
Db :----2---------2----|------------------|----------------|
Ab :-------------------|------------------|----------------|
Eb :-------------------|------------------|----------------|

                                          1:38             
Gb :-------------------|------------------|----------------|
Db :------0-2-2-2-2-2-0|*---------0-0-*---|----------------|
Ab :2-2-2-*------------|0-0-0-0-0-*---3-3-|2-2-0-*---------|
Eb :-------------------|------------------|------3-3-3-3-3-|


Eb :----------------|----------------|----------------|----------------|
Bb :----------------|*---------------|----------------|----------------|
Gb :5-5-4-2-2-2-2-2-|4-4-2-*---------|5-5-4-2-2-2-2-2-|*-----3-3-3-3-3-|
Db :5-5-4-2-2-2-2-2-|4-4-2-5-5-5-5-5-|5-5-4-2-2-2-2-2-|3-3-3-3-3-3-3-3-|
Ab :3-3-2-0-0-0-0-0-|2-2-0-5-5-5-5-5-|3-3-2-0-0-0-0-0-|3-3-3-1-1-1-1-1-|
Eb :*---------------|------3-3-3-3-3-|*---------------|1-1-1-*---------|

Eb :----------------|----------------|----------------|----------------|
Bb :----------------|----------------|----------------|----------------|
Gb :----------------|----------------|----------------|----------------|
Db :----------------|----------------|----------------|----------------|
Ab :----------------|----------------|----------------|----------------|
Eb :----------------|----------------|----------------|----------------|

                                                                       
Gb :----------------|----------------|----------------|----------------|
Db :----------------|----------------|----------------|----------------|
Ab :3-3-2-0-0-0-0-0-|2-2-0-*---------|3-3-2-0-0-0-0-0-|*-----1-1-1-1-1-|
Eb :*---------------|------3-3-3-3-3-|*---------------|1-1-1-*---------|


Eb :----------------|----------------|----------------|
Bb :----------------|*---------------|----------------|
Gb :*-----5-5-5-5-5-|4-4-2-*---------|5-5-6-7---------|
Db :5-5-5-5-5-5-5-5-|4-4-2-5-5-5-5-5-|5-5-6-7---------|
Ab :5-5-5-3-3-3-3-3-|2-2-0-5-5-5-5-5-|3-3-4-5---------|
Eb :3-3-3-*---------|------3-3-3-3-3-|*---------------|

Eb :----------------|----------------|----------------|
Bb :----------------|----------------|----------------|
Gb :----------------|----------------|----------------|
Db :----------------|----------------|----------------|
Ab :----------------|----------------|----------------|
Eb :----------------|----------------|----------------|

                                                      
Gb :----------------|----------------|----------------|
Db :----------------|----------------|----------------|
Ab :*-----3-3-3-3-3-|2-2-0-*---------|3-3-4-5---------|
Eb :3-3-3-*---------|------3-3-3-3-3-|*---------------|


Eb :-------------------|------------------|3-3-3-3---3-3-3-3--|
Bb :-------------------|------------------|3-3-3-3---3-3-3-3--|
Gb :*------------------|------------------|0-0-0-0---0-0-0-0--|
Db :*------------------|------------------|0-0-0-0---0-0-0-0--|
Ab :*------------------|------------------|2-2-2-2---2-2-2-2--|
Eb :-------------------|------------------|3-3-3-3---3-3-3-3--|

Eb :-------------------|------------------|-------------------|
Bb :-------------------|------------------|-------------------|
Gb :-------------------|------------------|-------------------|
Db :-------------------|------------------|-------------------|
Ab :-------------------|------------------|-------------------|
Eb :-------------------|------------------|-------------------|

                                                              
Gb :-------------------|------------------|-------------------|
Db :------0-2-2-2-2-2-0|*---------0-0-*---|------0-2-2-2-2-2-0|
Ab :2-2-2-*------------|0-0-0-0-0-*---3-3-|2-2-2-*------------|
Eb :-------------------|------------------|-------------------|


Eb :------------------|3-3-3-3---3-3-3-3--|------------------|
Bb :----------1-0-1-0-|3-3-3-3---3-3-3-3--|----------1-0-1-0-|
Gb :2-2-2-2---0-0-0-0-|0-0-0-0---0-0-0-0--|2-2-2-2---0-0-0-0-|
Db :2-2-2-2---2-2-2-2-|0-0-0-0---0-0-0-0--|2-2-2-2---2-2-2-2-|
Ab :0-0-0-0---3-3-3-3-|2-2-2-2---2-2-2-2--|0-0-0-0---3-3-3-3-|
Eb :*-----------------|3-3-3-3---3-3-3-3--|*-----------------|

Eb :------------------|-------------------|------------------|
Bb :------------------|-------------------|------------------|
Gb :------------------|-------------------|------------------|
Db :------------------|-------------------|------------------|
Ab :------------------|-------------------|------------------|
Eb :------------------|-------------------|------------------|

                                                             
Gb :------------------|-------------------|------------------|
Db :*---------0-0-*---|------0-2-2-2-2-2-0|*---------0-0-*---|
Ab :0-0-0-0-0-*---3-3-|2-2-2-*------------|0-0-0-0-0-*---3-3-|
Eb :------------------|-------------------|------------------|


Eb :3-3-3-3---3-3-3-3--|------------------|----------------|
Bb :3-3-3-3---3-3-3-3--|----------1-0-1-0-|*---------------|
Gb :0-0-0-0---0-0-0-0--|2-2-2-2---0-0-0-0-|4-4-4-9-9-9-9-9-|
Db :0-0-0-0---0-0-0-0--|2-2-2-2---2-2-2-2-|4-4-4-9-9-9-9-9-|
Ab :2-2-2-2---2-2-2-2--|0-0-0-0---3-3-3-3-|2-2-2-7-7-7-7-7-|
Eb :3-3-3-3---3-3-3-3--|*-----------------|----------------|

Eb :-------------------|------------------|----------------|
Bb :-------------------|------------------|----------------|
Gb :-------------------|------------------|----------------|
Db :-------------------|------------------|----------------|
Ab :-------------------|------------------|----------------|
Eb :-------------------|------------------|----------------|

                                          3:54             
Gb :-------------------|------------------|----------------|
Db :------0-2-2-2-2-2-0|*---------0-0-*---|----------------|
Ab :2-2-2-*------------|0-0-0-0-0-*---3-3-|2-2-2-7-7-7-7-7-|
Eb :-------------------|------------------|----------------|


Eb :----------------|----------------|----------------|----------------|
Bb :----------------|----------------|----------------|----------------|
Gb :2-2-2-2-7-7-5-5-|4-4-4-9-9-9-9-9-|2-2-2-2-7-7-5-5-|4-4-4-9-9-9-9-9-|
Db :2-2-2-2-7-7-5-5-|4-4-4-9-9-9-9-9-|2-2-2-2-7-7-5-5-|4-4-4-9-9-9-9-9-|
Ab :0-0-0-0-5-5-3-3-|2-2-2-7-7-7-7-7-|0-0-0-0-5-5-3-3-|2-2-2-7-7-7-7-7-|
Eb :----------------|----------------|----------------|----------------|

Eb :----------------|----------------|----------------|----------------|
Bb :----------------|----------------|----------------|----------------|
Gb :----------------|----------------|----------------|----------------|
Db :----------------|----------------|----------------|----------------|
Ab :----------------|----------------|----------------|----------------|
Eb :----------------|----------------|----------------|----------------|

                                                                       
Gb :----------------|----------------|----------------|----------------|
Db :----------------|----------------|----------------|----------------|
Ab :0-0-0-0-5-5-3-3-|2-2-2-7-7-7-7-7-|0-0-0-0-5-5-3-3-|2-2-2-7-7-7-7-7-|
Eb :----------------|----------------|----------------|----------------|


Eb :----------------|----------------|----------------|
Bb :----------------|----------------|----------------|
Gb :2-2-2-2-7-7-5-5-|4-4-4-9-9-9-9-9-|2-2-2-2-7-7-5-5-|
Db :2-2-2-2-7-7-5-5-|4-4-4-9-9-9-9-9-|2-2-2-2-7-7-5-5-|
Ab :0-0-0-0-5-5-3-3-|2-2-2-7-7-7-7-7-|0-0-0-0-5-5-3-3-|
Eb :----------------|----------------|----------------|

Eb :----------------|----------------|----------------|
Bb :----------------|----------------|----------------|
Gb :----------------|----------------|----------------|
Db :----------------|----------------|----------------|
Ab :----------------|----------------|----------------|
Eb :----------------|----------------|----------------|

                                                      
Gb :----------------|----------------|----------------|
Db :----------------|----------------|----------------|
Ab :0-0-0-0-5-5-3-3-|2-2-2-7-7-7-7-7-|0-0-0-0-5-5-3-3-|
Eb :----------------|----------------|----------------|


Eb :-------------------|----------------|---------------------|
Bb :-------------------|----------------|---------------------|
Gb :4-4-4-9-9--9--9--9-|2-2-2-2-7-7-5-5-|4-4-4--9--9--9--9--9-|
Db :4-4-4-9-9--9--9--9-|2-2-2-2-7-7-5-5-|4-4-4--9--9--9--9--9-|
Ab :2-2-2-7-7--7--7--7-|0-0-0-0-5-5-3-3-|2-2-2--7--7--7--7--7-|
Eb :-------------------|----------------|---------------------|

Eb :-------------------|----------------|---------------------|
Bb :-------------------|----------------|---------------------|
Gb :4-4-4-9-9-12-12-12-|2-2-2-2-7-7-5-5-|4-4-4-12-12-12-12-12-|
Db :-------------------|----------------|---------------------|
Ab :2-2-2-7-7-10-10-10-|0-0-0-0-5-5-3-3-|2-2-2-10-10-10-10-10-|
Eb :-------------------|----------------|---------------------|

   4:18                                                       
Gb :-------------------|----------------|---------------------|
Db :-------------------|----------------|---------------------|
Ab :2-2-2-7-7--7--7--7-|0-0-0-0-5-5-3-3-|2-2-2--7--7--7--7--7-|
Eb :-------------------|----------------|---------------------|


Eb :------------------|-------------------|----------------|
Bb :------------------|-------------------|----------------|
Gb :2-2-2-2--7--7-5-5-|4-4-4-9-9--9--9--9-|2-2-2-2-7-7-5-5-|
Db :2-2-2-2--7--7-5-5-|4-4-4-9-9--9--9--9-|2-2-2-2-7-7-5-5-|
Ab :0-0-0-0--5--5-3-3-|2-2-2-7-7--7--7--7-|0-0-0-0-5-5-3-3-|
Eb :------------------|-------------------|----------------|

Eb :------------------|-------------------|----------------|
Bb :------------------|-------------------|----------------|
Gb :5-5-5-5-11-11-9-9-|4-4-4-9-9-12-12-12-|2-2-2-2-7-7-5-5-|
Db :------------------|-------------------|----------------|
Ab :3-3-3-3--9--9-7-7-|2-2-2-7-7-10-10-10-|0-0-0-0-5-5-3-3-|
Eb :------------------|-------------------|----------------|

                                                           
Gb :------------------|-------------------|----------------|
Db :------------------|-------------------|----------------|
Ab :0-0-0-0--5--5-3-3-|2-2-2-7-7--7--7--7-|0-0-0-0-5-5-3-3-|
Eb :------------------|-------------------|----------------|


Eb :---------------------|------------------|----------------|
Bb :---------------------|------------------|----------------|
Gb :4-4-4--9--9--9--9--9-|2-2-2-2--7--7-5-5-|4---------------|
Db :4-4-4--9--9--9--9--9-|2-2-2-2--7--7-5-5-|4---------------|
Ab :2-2-2--7--7--7--7--7-|0-0-0-0--5--5-3-3-|2---------------|
Eb :---------------------|------------------|----------------|

Eb :---------------------|------------------|----------------|
Bb :---------------------|------------------|----------------|
Gb :4-4-4-12-12-12-12-12-|5-5-5-5-11-11-9-9-|7---------------|
Db :---------------------|------------------|----------------|
Ab :2-2-2-10-10-10-10-10-|3-3-3-3--9--9-7-7-|5---------------|
Eb :---------------------|------------------|----------------|

   4:36                                                      
Gb :---------------------|------------------|----------------|
Db :---------------------|------------------|----------------|
Ab :2-2-2--7--7--7--7--7-|0-0-0-0--5--5-3-3-|2---------------|
Eb :---------------------|------------------|----------------|


Eb :----------------|-------------------|-------------------|
Bb :----------------|-------------------|-------------------|
Gb :----------------|*------------------|------------------7|
Db :----------------|*------------------|-------------------|
Ab :----------------|*------------------|-------------------|
Eb :----------------|-------------------|-------------------|

Eb :----------------|-------------------|-------------------|
Bb :----------------|-------------------|-------------------|
Gb :----------------|*------------------|-------------------|
Db :----------------|-------------------|-------------------|
Ab :----------------|*------------------|-------------------|
Eb :----------------|-------------------|-------------------|

                                                            
Gb :----------------|-------------------|-------------------|
Db :----------------|------0-2-2-2-2-2-0|*---------0-0-*----|
Ab :----------------|2-2-2-*------------|0-0-0-0-0-*---3-3--|
Eb :----------------|-------------------|-------------------|


Eb :7-----7-------7-------7-------7|------7-------8-----8-----8----|
Bb :--8-------8-------8-------8----|--8-------8-----8-----8-----8--|
Gb :----7-------7-------7-------7--|----7-------7-----7-----7-----7|
Db :-------------------------------|-------------------------------|
Ab :-------------------------------|-------------------------------|
Eb :-------------------------------|-------------------------------|

Eb :-------------------------------|-------------------------------|
Bb :-------------------------------|-------------------------------|
Gb :-------------------------------|-------------------------------|
Db :-------------------------------|-------------------------------|
Ab :-------------------------------|-------------------------------|
Eb :-------------------------------|-------------------------------|

   4 : 5 5                                                         
Gb :-------------------------------|-------------------------------|
Db :------------0-2-2---2---2---2-0|*---------------0---0---*------|
Ab :2---2---2---*------------------|0---0---0---0-0-*-------3---3--|
Eb :-------------------------------|-------------------------------|


Eb :7-----7-------7-------7-------7|------7-------8-----8-----8----|
Bb :--8-------8-------8-------8----|--8-------8-----8-----8-----8--|
Gb :----7-------7-------7-------7--|----7-------7-----7-----7-----7|
Db :-------------------------------|-------------------------------|
Ab :-------------------------------|-------------------------------|
Eb :-------------------------------|-------------------------------|

Eb :-------------------------------|-------------------------------|
Bb :-------------------------------|-------------------------------|
Gb :-------------------------------|-------------------------------|
Db :-------------------------------|-------------------------------|
Ab :-------------------------------|-------------------------------|
Eb :-------------------------------|-------------------------------|

                                                                   
Gb :-------------------------------|-------------------------------|
Db :------------0-2-2---2---2---2-0|*---------------0---0---*------|
Ab :2---2---2---*------------------|0---0---0---0-0-*-------3---3--|
Eb :-------------------------------|-------------------------------|


Eb :7-----7-------7-------7-------7|------7-------8-----8-----8----|
Bb :--8-------8-------8-------8----|--8-------8-----8-----8-----8--|
Gb :----7-------7-------7-------7--|----7-------7-----7-----7-----7|
Db :-------------------------------|-------------------------------|
Ab :-------------------------------|-------------------------------|
Eb :-------------------------------|-------------------------------|

Eb :-------------------------------|-------------------------------|
Bb :-------------------------------|-------------------------------|
Gb :-------------------------------|-------------------------------|
Db :-------------------------------|-------------------------------|
Ab :-------------------------------|-------------------------------|
Eb :-------------------------------|-------------------------------|

                                                                   
Gb :-------------------------------|-------------------------------|
Db :------------0-2-2---2---2---2-0|*---------------0---0---*------|
Ab :2---2---2---*------------------|0---0---0---0-0-*-------3---3--|
Eb :-------------------------------|-------------------------------|


Eb :7-----7-------7-------7-------7|------7-------8-----8-----8---|
Bb :--8-------8-------8-------8----|--8-------8-----8-----8-----8-|
Gb :----7-------7-------7-------7--|----7-------7-----7-----7-----|
Db :-------------------------------|------------------------------|
Ab :-------------------------------|------------------------------|
Eb :-------------------------------|------------------------------|

Eb :-------------------------------|------------------------------|
Bb :-------------------------------|------------------------------|
Gb :-------------------------------|------------------------------|
Db :-------------------------------|------------------------------|
Ab :-------------------------------|------------------------------|
Eb :-------------------------------|------------------------------|

                                                                  
Gb :-------------------------------|------------------------------|
Db :------------0-2-2---2---2---2-0|*---------------0---0---*-----|
Ab :2---2---2---*------------------|0---0---0---0-0-*-------3---3-|
Eb :-------------------------------|------------------------------|


Eb :-----------------------------------------------|
Bb :-----------------------------------------------|
Gb :-----------------------------------------------|
Db :-----------------------------------------------|
Ab :-----------------------------------------------|
Eb :-----------------------------------------------|

Eb :-----------------------------------------------|
Bb :-----------------------------------------------|
Gb :11-11-11-11-11-11-11-11-11-11-11-11-11-11-11-11|
Db :-----------------------------------------------|
Ab :-----------------------------------------------|
Eb :-----------------------------------------------|

    5  :  2  0                                     
Gb :-----------------------------------------------|
Db :-------------------0--2--2-----2-----2-----2--0|
Ab :-2-----2-----2-----*---------------------------|
Eb :-----------------------------------------------|


Eb :-----------------------------------------|
Bb :-----------------------------------------|
Gb :-----------------------------------------|
Db :-----------------------------------------|
Ab :-----------------------------------------|
Eb :-----------------------------------------|

Eb :-----------------------------------------|
Bb :-----------------------------------------|
Gb :12-12-12-12-12-12-12-12-12-12-12-12-12---|
Db :-----------------------------------------|
Ab :-----------------------------------------|
Eb :-----------------------------------------|

                                             
Gb :-----------------------------------------|
Db :-*-----------------------0-----0-----*---|
Ab :-0-----0-----0-----0--0--*-----------3-3-|
Eb :-----------------------------------------|


Eb :-----------------------------------------------|
Bb :-----------------------------------------------|
Gb :-----------------------------------------------|
Db :-----------------------------------------------|
Ab :-----------------------------------------------|
Eb :-----------------------------------------------|

Eb :-----------------------------------------------|
Bb :-----------------------------------------------|
Gb :11-11-11-11-11-11-11-11-11-11-11-11-11-11-11-11|
Db :-----------------------------------------------|
Ab :-----------------------------------------------|
Eb :-----------------------------------------------|

                                                   
Gb :-----------------------------------------------|
Db :-------------------2--2--2--2--2--2--2--2--2--2|
Ab :-2--2--2--2--2--2--*---------------------------|
Eb :-----------------------------------------------|


Eb :-----------------------------------------------|
Bb :-----------------------------------------------|
Gb :-----------------------------------------------|
Db :-----------------------------------------------|
Ab :-----------------------------------------------|
Eb :-----------------------------------------------|

Eb :-----------------------------------------------|
Bb :-----------------------------------------------|
Gb :12-12-12-12-12-12-12-12-12-12-12-12-12-12-12-12|
Db :-----------------------------------------------|
Ab :-----------------------------------------------|
Eb :-----------------------------------------------|

                                                   
Gb :-----------------------------------------------|
Db :-*-----------------------0--0--0--0--*---------|
Ab :-0--0--0--0--0--0--0--0--*-----------3--3--3--3|
Eb :-----------------------------------------------|


Eb :-----------------------------------------------|
Bb :-----------------------------------------------|
Gb :-----------------------------------------------|
Db :-----------------------------------------------|
Ab :-----------------------------------------------|
Eb :-----------------------------------------------|

Eb :-----------------------------------------------|
Bb :-----------------------------------------------|
Gb :11-11-11-11-11-11-11-11-11-11-11-11-11-11-11-11|
Db :-----------------------------------------------|
Ab :-----------------------------------------------|
Eb :-----------------------------------------------|

                                                   
Gb :-----------------------------------------------|
Db :-------------------2--2--2--2--2--2--2--2--2--2|
Ab :-2--2--2--2--2--2--*---------------------------|
Eb :-----------------------------------------------|


Eb :-----------------------------------------------|
Bb :-----------------------------------------------|
Gb :-----------------------------------------------|
Db :-----------------------------------------------|
Ab :-----------------------------------------------|
Eb :-----------------------------------------------|

Eb :-----------------------------------------------|
Bb :-----------------------------------------------|
Gb :12-12-12-12-12-12-12-12-14-14-14-14-14-14-14-14|
Db :-----------------------------------------------|
Ab :-----------------------------------------------|
Eb :-----------------------------------------------|

                                                   
Gb :-----------------------------------------------|
Db :-*-----------------------0--0--0--0--*---------|
Ab :-0--0--0--0--0--0--0--0--*-----------3--3--3--3|
Eb :-----------------------------------------------|


Eb :-----------------------------------------------|
Bb :-----------------------------------------------|
Gb :11-11-11-11-11-11-11-11-11-11-11-11-11-11-11-11|
Db :-----------------------------------------------|
Ab :-----------------------------------------------|
Eb :-----------------------------------------------|

Eb :-----------------------------------------------|
Bb :-----------------------------------------------|
Gb :-*---------------------------------------------|
Db :-----------------------------------------------|
Ab :-5--5--5--5--5-----5--5--5--7--7--7--7-----7--7|
Eb :-----------------------------------------------|

    5  :  3  8                                     
Gb :-----------------------------------------------|
Db :-------------------2--2--2--2--2--2--2--2--2--2|
Ab :-2--2--2--2--2--2--*---------------------------|
Eb :-----------------------------------------------|


Eb :-----------------------------------------------|
Bb :-----------------------------------------------|
Gb :12-12-12-12-12-12-12-12-14-14-14-14-14-14-14-14|
Db :-----------------------------------------------|
Ab :-----------------------------------------------|
Eb :-----------------------------------------------|

Eb :-----------------------------------------------|
Bb :-----------------------------------------------|
Gb :-----------------------------------------------|
Db :-----------------------------------------------|
Ab :-7--7--7--7--7--7--7--7--9--9--9--9--9--9--9--9|
Eb :-----------------------------------------------|

                                                   
Gb :-----------------------------------------------|
Db :-*-----------------------0--0--0--0--*---------|
Ab :-0--0--0--0--0--0--0--0--*-----------3--3--3--3|
Eb :-----------------------------------------------|


Eb :-----------------------------------------------|
Bb :-----------------------------------------------|
Gb :16-16-16-16-16-16-16-16-16-16-16-16-16-16-16-16|
Db :-----------------------------------------------|
Ab :------------------14-14-14-14-14-14-14-14-14-14|
Eb :-----------------------------------------------|

Eb :-----------------------------------------------|
Bb :-----------------------------------------------|
Gb :-----------------------------------------------|
Db :-----------------------------------------------|
Ab :10-10-10-10-10-10-10-10-10-10-10-10-10-10-10-10|
Eb :-----------------------------------------------|

    5  :  4  4                                     
Gb :-----------------------------------------------|
Db :-------------------2--2--2--2--2--2--2--2--2--2|
Ab :-2--2--2--2--2--2--*---------------------------|
Eb :-----------------------------------------------|


Eb :-----------------------------------------------|
Bb :-----------------------------------------------|
Gb :-*---------------------------------------------|
Db :-----------------------------------------------|
Ab :14-14-14-14-14-14-14-14-15-15-15-15-15-15-15-15|
Eb :-----------------------------------------------|

Eb :-----------------------------------------------|
Bb :-----------------------------------------------|
Gb :-----------------------------------------------|
Db :-----------------------------------------------|
Ab :12-12-12-12-12-12-12-12-12-12-12-12-12-12-12-12|
Eb :-----------------------------------------------|

                                                   
Gb :-----------------------------------------------|
Db :-*-----------------------0--0--0--0--*---------|
Ab :-0--0--0--0--0--0--0--0--*-----------3--3--3--3|
Eb :-----------------------------------------------|


Eb :-----------------------------------------------|
Bb :-----------------------------------------------|
Gb :-----------------------------------------------|
Db :-----------------------------------------------|
Ab :17-17-17-17-17-17-17-17-17-17-17-17-17-17-17-17|
Eb :-----------------------------------------------|

Eb :-----------------------------------------------|
Bb :-----------------------------------------------|
Gb :-----------------------------------------------|
Db :-----------------------------------------------|
Ab :14-14-14-14-14-14-14-14-14-14-14-14-14-14-14-14|
Eb :-----------------------------------------------|

                                                   
Gb :-----------------------------------------------|
Db :-------------------2--2--2--2--2--2--2--2--2--2|
Ab :-2--2--2--2--2--2--*---------------------------|
Eb :-----------------------------------------------|


Eb :-----------------------------------------------|
Bb :-----------------------------------------------|
Gb :-----------------------------------------------|
Db :------------------------14-14-14-14-14-14-14-14|
Ab :17-17-17-17-17-17-17-17--*---------------------|
Eb :-----------------------------------------------|

Eb :-----------------------------------------------|
Bb :-----------------------------------------------|
Gb :-----------------------------------------------|
Db :10-10-10-10-10-10-10-10-12-12-12-12-12-12-12-12|
Ab :-*-----------------------*---------------------|
Eb :-----------------------------------------------|

                                                   
Gb :-----------------------------------------------|
Db :-*-----------------------0--0--0--0--*---------|
Ab :-0--0--0--0--0--0--0--0--*-----------3--3--3--3|
Eb :-----------------------------------------------|


Eb :-----------------------------------------------|
Bb :-----------------------------------------------|
Gb :-----------------------------------------------|
Db :16-16-16-16-16-16-16-16-16-16-16-16-16-16-16-16|
Ab :-----------------------------------------------|
Eb :-----------------------------------------------|

Eb :-----------------------------------------------|
Bb :-----------------------------------------------|
Gb :-----------------------------------------------|
Db :12-12-12-12-12-12-12-12-12-12-12-12-12-12-12-12|
Ab :-----------------------------------------------|
Eb :-----------------------------------------------|

                                                   
Gb :-----------------------------------------------|
Db :-------------------2--2--2--2--2--2--2--2--2--2|
Ab :-2--2--2--2--2--2--*---------------------------|
Eb :-----------------------------------------------|


Eb :-----------------------------------------------|
Bb :-----------------------------------------------|
Gb :-----------------------------------------------|
Db :16-16-16-16-16-16-16-16-16-16-16-16-14-14-14-14|
Ab :-----------------------------------------------|
Eb :-----------------------------------------------|

Eb :-----------------------------------------------|
Bb :-----------------------------------------------|
Gb :-----------------------------------------------|
Db :14-14-14-14-14-14-14-14-16-16-16-16-16-16-16-16|
Ab :-----------------------------------------------|
Eb :-----------------------------------------------|

                                                   
Gb :-----------------------------------------------|
Db :-*-----------------------0--0--0--0--*---------|
Ab :-0--0--0--0--0--0--0--0--*-----------3--3--3--3|
Eb :-----------------------------------------------|


Eb :-----------------------------------------------|
Bb :-----------------------------------------------|
Gb :------------------------12-12-12-12-12-12-12-12|
Db :12-12-12-12-12-12-12-12--*---------------------|
Ab :-----------------------------------------------|
Eb :-----------------------------------------------|

Eb :-----------------------------------------------|
Bb :-----------------------------------------------|
Gb :-----------------------------------------------|
Db :16-16-16-16-16-16-16-16--*---------------------|
Ab :------------------------14-14-14-14-14-14-14-14|
Eb :-----------------------------------------------|

                                                   
Gb :-----------------------------------------------|
Db :-------------------2--2--2--2--2--2--2--2--2--2|
Ab :-2--2--2--2--2--2--*---------------------------|
Eb :-----------------------------------------------|


Eb :-----------------------------------------------|
Bb :-----------------------------------------------|
Gb :12-12-12-12-12-12-12-12-11-11-11-11-11-11-11-11|
Db :-----------------------------------------------|
Ab :-----------------------------------------------|
Eb :-----------------------------------------------|

Eb :-----------------------------------------------|
Bb :-----------------------------------------------|
Gb :-----------------------------------------------|
Db :16-16-16-16-16-16-16-16--*---------------------|
Ab :-*----------------------14-14-14-14-14-14-14-14|
Eb :-----------------------------------------------|

    6  :  0  6                                     
Gb :-----------------------------------------------|
Db :-*-----------------------0--0--0--0--*---------|
Ab :-0--0--0--0--0--0--0--0--*-----------3--3--3--3|
Eb :-----------------------------------------------|


Eb :-----------------------------------------------|
Bb :-----------------------------------------------|
Gb :-9--9--9--9--7--7--7--7--9--9--9--9-11-11-11-11|
Db :-----------------------------------------------|
Ab :-----------------------------------------------|
Eb :-----------------------------------------------|

Eb :-----------------------------------------------|
Bb :-----------------------------------------------|
Gb :-----------------------------------------------|
Db :17-17-17-17-17-17-17-17-17-17-17-17-17-17-17-17|
Ab :-*---------------------------------------------|
Eb :-----------------------------------------------|

                                                   
Gb :-----------------------------------------------|
Db :-------------------2--2--2--2--2--2--2--2--2--2|
Ab :-2--2--2--2--2--2--*---------------------------|
Eb :-----------------------------------------------|


Eb :-----------------------------------------------|
Bb :-----------------------------------------------|
Gb :-9--9--9--9--7--7--7--7--9--9--9--9-11-11-11-11|
Db :-----------------------------------------------|
Ab :-----------------------------------------------|
Eb :-----------------------------------------------|

Eb :-----------------------------------------------|
Bb :-----------------------------------------------|
Gb :-----------------------------------------------|
Db :17-17-17-17-17-17-17-17--*---------------------|
Ab :------------------------17-17-17-17-17-17-17-17|
Eb :-----------------------------------------------|

                                                   
Gb :-----------------------------------------------|
Db :-*-----------------------0--0--0--0--*---------|
Ab :-0--0--0--0--0--0--0--0--*-----------3--3--3--3|
Eb :-----------------------------------------------|


Eb :-----------------------------------------------|
Bb :-----------------------------------------------|
Gb :11-11-11-11-11-11-11-11-11-11-11-11-11-11-11-11|
Db :-----------------------------------------------|
Ab :-----------------------------------------------|
Eb :-----------------------------------------------|

Eb :-----------------------------------------------|
Bb :-----------------------------------------------|
Gb :-----------------------------------------------|
Db :-----------------------------------------------|
Ab :17-17-17-17-17-17-17-17-17-17-17-17-19-19-19-19|
Eb :-----------------------------------------------|

    6  :  1  5                                     
Gb :-----------------------------------------------|
Db :-------------------2--2--2--2--2--2--2--2--2--2|
Ab :-2--2--2--2--2--2--*---------------------------|
Eb :-----------------------------------------------|


Eb :-----------------------------------------------|
Bb :-----------------------------------------------|
Gb :12-12-12-12-12-12-12-12-14-14-14-14-14-14-14-14|
Db :-----------------------------------------------|
Ab :-----------------------------------------------|
Eb :-----------------------------------------------|

Eb :-----------------------------------------------|
Bb :-----------------------------------------------|
Gb :-----------------------------------------------|
Db :16-16-16-16-16-16-16-16-16-16-16-16-16-16-16-16|
Ab :-*---------------------------------------------|
Eb :-----------------------------------------------|

                                                   
Gb :-----------------------------------------------|
Db :-*-----------------------0--0--0--0--*---------|
Ab :-0--0--0--0--0--0--0--0--*-----------3--3--3--3|
Eb :-----------------------------------------------|


Eb :-----------------------------------------------|
Bb :-----------------------------------------------|
Gb :12-12-12-12-12-12-12-12-12-12-12-12-12-12-12-12|
Db :-----------------------------------------------|
Ab :-----------------------------------------------|
Eb :-----------------------------------------------|

Eb :-----------------------------------------------|
Bb :-----------------------------------------------|
Gb :-----------------------------------------------|
Db :16-16-16-16-17-17-17-17-16-16-16-16-17-17-17-17|
Ab :-----------------------------------------------|
Eb :-----------------------------------------------|

                                                   
Gb :-----------------------------------------------|
Db :------------------





Comments


Popular Weezer tabs & chords
Beverly Hills 1 Bass Tabs
Crab 2 Bass Tabs
Baby One More Time 2 Chords
The Heart Songs Chords
Blast Off Tabs
Say It Aint So 2 Tabs
Turn Me Round Tabs
Baby One More Time 2 Ukulele
Falling For You Ukulele
I Dont Want To Let You Go Ukulele


Song lyrics



↑ Back to top | Tablatures and chords are parodies/interpretations of the original songs. You may use it for private study, scholarship, research or language learning purposes only
© 2014 AZChords.com Contact us | Privacy policy | DMCA | Add/correct tabs | Request tabs | Top 50 tabs