» » »

No One Else Tabs (ver.1)

Artists:  A B C D E F G H I J K L M N O P Q R S T U V W X Y Z # 

No One Else Tabs (ver.1)

Weezer
Rating:
0/5 (0 votes)

Hard to play? Try these video lessons and learn fast.
                This song is tuned the same as like all the other weezer songs.  This intro sounds pretty right...better than all the others at least______listen to the song.  If you hav any corrections pleeze tell me.




Intro


e|-------------------------------------------------------------------|

B|-------------------------------------------------------------------|

G|-------------------------------------------------------------------|

D|--9-9-9-9-9-9-11-11-11-9-9-9-6-4-2-4-------------------------------|

A|--7-7-7-6-6-6-x--x--x--x-x-x-x-x-x-x-------------------------------|

E|--------------9--9--9--7-7-7-5-5-5-5-------------------------------|



Verse





e|-------------------------------------------------------------------|

B|-------------------------------------------------------------------|

G|--------------------------------------------------4-4-4-4-2-2-2-2--|

D|--2-2-2-2-2-2-2-2-7-7-7-7-6-6-6-6-4-4-4-4-4-4-4-4-4-4-4-4-2-2-2-2--|

A|--2-2-2-2-2-2-2-2-7-7-7-7-6-6-6-6-4-4-4-4-4-4-4-4-2-2-2-2-0-0-0-0--|

E|--0-0-0-0-0-0-0-0-5-5-5-5-4-4-4-4-2-2-2-2-2-2-2-2------------------|



e|-------------------------------------------------------------------|

B|-------------------------------------------------------------------|

G|--------------------------------------------------4-4-4-4-4-4-4-4--|

D|--6-6-6-6-6-6-6-6-7-7-7-7-6-6-6-6-4-4-4-4-4-4-4-4-4-4-4-4-4-4-4-4--|

A|--6-6-6-6-6-6-6-6-7-7-7-7-6-6-6-6-4-4-4-4-4-4-4-4-2-2-2-2-2-2-2-2--|

E|--4-4-4-4-4-4-4-4-5-5-5-5-4-4-4-4-2-2-2-2-2-2-2-2------------------|
            
Hard to play? Try these video lessons and learn fast. | Correct




comments powered by Disqus
↑ Back to top | Tablatures and chords are parodies/interpretations of the original songs. You may use it for private study, scholarship, research or language learning purposes only