» » »

Mykel And Carli Bass tabs (ver.1)

Artists:  A B C D E F G H I J K L M N O P Q R S T U V W X Y Z # 

Mykel And Carli Bass tabs (ver.1)

Weezer
Rating:
0/5 (0 votes)

Hard to play? Try these video lessons and learn fast.
                (2)

verse

---------------------------------|---------------------------------
---------------------------------|-1-1-1-1-------------------------
---------2-2-2-2-4-4-4-4---------|-----------------4-4-4-4---------
-2-2-2-2-----------------2-2-2-2-|---------4-4-4-4---------2-4-2-2-

---------------------------------
-1-1-1-1-------------------------
-----------------4-4-4-4---------
---------4-4-4-4---------2-2-2-2-

chorus

-----------------------------
-----------------------------
-1-1-2-2-2-2-4-4-4-4---------
---------------------4-4-4-4-

solo

---------------------------------------------
---------------------------------------------
-4-4-4-4---------1-1-2-2-2-2-4-4-4-4---------
---------2-2-2-2---------------------2-2-2-2-
            
Hard to play? Try these video lessons and learn fast. | Correct




comments powered by Disqus
↑ Back to top | Tablatures and chords are parodies/interpretations of the original songs. You may use it for private study, scholarship, research or language learning purposes only