>
 >
Hold Me 1

Hold Me 1 Guitar Tabs

Weezer - Hold Me 1 chords, tabs, tablatures, lyrics

Guitar lessons | Add/correct | Request | Top 50 tabs Artists:  A B C D E F G H I J K L M N O P Q R S T U V W X Y Z 0-9

Hold Me 1 Guitar Tabs – Weezer

CD, Sheet music, Poster

Do you like Hold Me 1? Share with your friends now
Bass TabsDrum TabsTabsTabs v2Tabs v3
----------------------------------------------------------------------------
                             Hold Me - Weezer

Tuning: Eb Bb Gb Db Ab Eb
(Chords are relative to tuning)

Intro (Clean Guitar)

     E            G#m          A            B
eb|------------|------------|------------|---------------|
Bb|------------|------------|------------|---------------|
Gb|------1-----|------4-----|------6-----|------8--------|
Db|----2-------|----6---6---|----7---7---|----9---9------|
Ab|------------|------------|------------|---------------|
Eb|--0---------|-/4---------|--5---------|--7------------|

Verse 1
  E G#m A B            E  G#m  A   B                 E G#m A B 
I am      terrified of all things, frightened of the dark    
  E G#m A B
I am

    E G#m A B             E  G#m  A  B               E G#m A B
You are     taller than a mountain,  deeper than the sea
    E G#m A B
You are


Chorus (Distorted Guitar)
     E        G#m      C#m        A      
eb|--------|--------|----------|--------|
Bb|--------|--------|----------|--------|
Gb|--------|--------|----------|--------|
Db|--2--2--|--6--6--|--11--11--|--7--7--|
Ab|--2--2--|--6--6--|--11--11--|--7--7--|
Eb|--0--0--|--4--4--|--9---9---|--5--5--|
     Hoooooooold       me
     Hoooooooold       me
              Take me with you 'cause I'm 
     Looooooooooooooonely

Chorus Guitar 2 fill
   E      G#m      C#m      A        E      G#m      C#m      A 
eb|---------------|-----------------|---------------|-----------------|
Bb|---------------|-----------------|--------9------|-----------------|
Gb|---------------|-----------------|--------11b----|-9~--------------|
Db|---------------|-----------9b-9b-|---------------|-----------9b~---|
Ab|---------------|-----------------|---------------|-----------------|
Eb|---------------|-----------------|---------------|-----------------|

   E      G#m      C#m      A        E      G#m      C#m      A 
eb|---------------|---------------|-----------------|-----------------|
Bb|---------------|---------------|-----------------|-----------------|
Gb|---------------|---------------|-9-9-9-9-8-8-8-8-|-9-9-9-9-/9------|
Db|---------------|---------------|-----------------|------------9-9~-|
Ab|---------------|---------------|-----------------|-----------------|
Eb|---------------|---------------|-----------------|-----------------|


Verse 2
  E G#m A B             E  G#m  A  B          E G#m A B
I was     closer to you back then  I was happier
  E G#m A B
I was

    E G#m A B              E  G#m  A  B                  E G#m A B
You are     fading further from me    why don't you come home
   E G#m A B
To me


Chorus
     E        G#m      C#m        A      
eb|--------|--------|----------|--------|
Bb|--------|--------|----------|--------|
Gb|--------|--------|----------|--------|
Db|--2--2--|--6--6--|--11--11--|--7--7--|
Ab|--2--2--|--6--6--|--11--11--|--7--7--|
Eb|--0--0--|--4--4--|--9---9---|--5--5--|
     Hoooooooold       me
     Hoooooooold       me
              Take me with you 'cause I'm 
     Looooooooooooooonely


Bridge
eb|--------------|---------|-------------|----------|
Bb|--------------|---------|-------------|----------|
Gb|--------------|---------|-------------|----------|
Db|--11-11-11-11-|-6-6-6-6-|-11-11-11-11-|-6-6-6-6--|
Ab|--11-11-11-11-|-6-6-6-6-|-11-11-11-11-|-6-6-6-6--|
Eb|--9--9--9--9--|-4-4-4-4-|-9--9--9--9--|-4-4-4-4--|
           I       am              I       am         

eb|----------|---------|---------|-----------------|-----------------|
Bb|----------|---------|---------|-----------------|-----------------|
Gb|----------|---------|---------|-----------------|-----------------|
Db|--7-7-7-7-|-2---9---|-2---9---|-2-2-2-2-2-2-2-2-|-9-9-9-9-9-9-9-9-|
Ab|--7-7-7-7-|-2---9---|-2---9---|-2-2-2-2-2-2-2-2-|-9-9-9-9-9-9-9-9-|
Eb|--5-5-5-5-|-0---7---|-0---7---|-0-0-0-0-0-0-0-0-|-7-7-7-7-7-7-7-7-|
     Cold      Hoooooooooooooold   me       


Solo
Guitar 1            
eb|/12~-12-----11-|----12-------11-|----12----------|----------------|
Bb|-------12~-----|------12~-------|------12~----10-|--9--7h9h10--7~-|
Gb|---------------|----------------|----------------|----------------|
Db|---------------|----------------|----------------|----------------|
Ab|---------------|----------------|----------------|----------------|
Eb|---------------|----------------|----------------|----------------|

Guitar 2 (enters on pinch harmonics)
eb|--<<12~~>>-----|--<<12~~>>------|--<<12~~>>------|----------------|
Bb|---------------|----------------|-------------10-|--9--7h9h10--7~-|
Gb|---------------|----------------|----------------|----------------|
Db|---------------|----------------|----------------|----------------|
Ab|---------------|----------------|----------------|----------------|
Eb|---------------|----------------|----------------|----------------|


Guitar 1
eb|------------------|----------------|------------------|----------------|
Bb|-12-12-12-10-9-10~|-10-10-10-9-7-9~|-12-12-12-10-9-10~|-10-10-10-9-7-9~|
Gb|------------------|----------------|------------------|----------------|
Db|------------------|----------------|------------------|----------------|
Ab|------------------|----------------|------------------|----------------|
Eb|------------------|----------------|------------------|----------------|

Guitar 2
eb|------------------|----------------|-12-12-12-9-7-9~--|-9-9-9-7-5-7~--|
Bb|-12-12-12-10-9-10~|-10-10-10-9-7-9~|------------------|---------------|
Gb|------------------|----------------|------------------|---------------|
Db|------------------|----------------|------------------|---------------|
Ab|------------------|----------------|------------------|---------------|
Eb|------------------|----------------|------------------|---------------|



Final Chorus 2X
     E        G#m      C#m        A      
eb|--------|--------|----------|--------|
Bb|--------|--------|----------|--------|
Gb|--------|--------|----------|--------|
Db|--2--2--|--6--6--|--11--11--|--7--7--|
Ab|--2--2--|--6--6--|--11--11--|--7--7--|
Eb|--0--0--|--4--4--|--9---9---|--5--5--|
     Hoooooooold       me
     Hoooooooold       me
              Take me with you 'cause I'm 
     Looooooooooooooonely

Outro
eb|------------|------------|------------|---------------|
Bb|------------|------------|------------|---------------|
Gb|------1-----|------4-----|------6-----|------8-9------|
Db|----2-------|----6---6---|----7---7---|----9----------|
Ab|------------|------------|------------|---------------|
Eb|--0---------|-/4---------|--5---------|--7------------|
     Hoooooooold               me
     Hoooooooold               me


End on
eb|--<12>--|
Bb|--<12>--|
Gb|--------|
Db|--------|
Ab|--------|
Eb|--------|

| /  slide up
| \  slide down
| h  hammer-on
| p  pull-off
| ~  vibrato
| +  harmonic
| x  Mute note
============================================================================





Comments


Popular Weezer tabs & chords
Burndt Jamb 1 Bass Tabs
Glorious Day Bass Tabs
Pork And Beans 2 Bass Tabs
I Dont Want To Let You Go 1 Chords
I Dont Want To Let You Go 2 Chords
We Are All On Drugs Chords
Automatic Tabs
You Gave Your Love To Me Tabs
Smart Girls Ukulele
Unspoken Ukulele


Song lyrics



↑ Back to top | Tablatures and chords are parodies/interpretations of the original songs. You may use it for private study, scholarship, research or language learning purposes only
© 2014 AZChords.com Contact us | Privacy policy | DMCA | Add/correct tabs | Request tabs | Top 50 tabs