» » »

Hash Pipe Bass tabs (ver.3)

Artists:  A B C D E F G H I J K L M N O P Q R S T U V W X Y Z # 

Hash Pipe Bass tabs (ver.3)

Weezer
Rating:
0/5 (0 votes)

Tabs too difficult? Try these video lessons and learn fast.
                band weezer
song hash pipe
standard tunning (eadg)
    (0;01,0:54)
g|------------------------------------|
d|----------------------------------5-|  repeat 2x's
a|00-2-3-00-2-3--00-2-3-00-2-3-00-7---|
e|------------------------------------|
   (0:08,1:02)
g|--------------|
d|--------------| repeat 2x's
a|-00-2-300-2-3-|
e|--------------|      

g|--------------|
d|--------------|
a|00-2-3--------| repeat 4x's
e|--------------|
   
g|---------------|
d|-------------5-|
a|-00-2-3-00-7---| play once
e|---------------|

(0:23,1:17,2:14)
g|------------------------------------------------------|
d|------------------------------------------------------|
a|5-5--5-550-5-5-5-5-5----00-2-3-00-2-3-00-2-3-00-2-0---|
e|---------------------10-------------------------------|
   
g|--------------------------------------------------------|
d|-------------5------------------------------------------|
a|55-55--5-5/7---7-5\---------------------------------5-7-|
e|---------------------1-1-1-1---1-1-1-1--1-1-1-1-1/7-----|

g|---------------------|             g|---------------------|
d|---------------------|             d|---------------------| play 2x's
a|7-7-7-7---7-7-7-7----| play 2x's   a|5-5-5-5---5-5-5-5----|
e|---------------------|             e|---------------------|
             
g|---------------------|           g|-----------------------------|           
d|---------------------|           d|-----------------------------|
a|3-3-3-3--3-3-3-3-----|play 2x's  a|2-2-2-2--2-2--2-2-2-2-2--2-2-|
e|---------------------|           e|-----------------------------|
**NOW PLAY FROM THE BEGINNING AGAIN AND WHAEN YOU REACH THIS POINT, USE BASS FILL IN'S

FILL IN #1                               FILL IN # 2 USE DURRING GUITAR SOLO   
g|----------------------------| G|---------------------------------|
d|-------------9-9-9-9-9-9-9--| D|-------9-9-9-9-9-9-9-7-----------|
a|2-2-2-2--22-----------------| A|2-2-2------------------9-7-6\1---|
e|---------------------------7| E|---------------------------------|

G|------------------------------------|
D|---------------------------5--------| 
A|00-2-3-00-2-3-00-2-3-00-7-----------|PLAY 4X'S
E|------------------------------------|

G|-------------------|
D|-------------------|
A|00-2-3-00-2-3------|PLAY 2X'S
E|-------------------|

G|-----------------------------|
D|-----------------------------|
A|00-2-3-00-2-3-00-2-300-2-3/0-|
E|-----------------------------|


========================================================================

          WEEZER
          HASHPIPE
          
          INTRO
          
          G--------
          D--------
          A---1/3--
          E--------
          
          
          RIFF
          
          G-----------------
          D-----------------
          A--0-0-2-3--------
          E-----------------
          
          
          CHOURS
          
          G-------:--------------------------------:---------:---------
          D-------:--------------------------------:---------:---------
          A--5-5--:0-0-2-3-0-0-2-3-0-0-2-3-0-0-2-3-:-5-9-7-5-:3-7-5-3-2
          E-------:--------------------------------:---------:---------
          
          RIFF
          
          G-----------------
          D-----------------
          A--0-0-2-3--------
          E-----------------
          
          
          CHOURS
          
          G-------:--------------------------------:---------:---------
          D-------:--------------------------------:---------:---------
          A--5-5--:0-0-2-3-0-0-2-3-0-0-2-3-0-0-2-3-:-5-9-7-5-:3-7-5-3-2
          E-------:--------------------------------:---------:---------
          
          
          BRIDGE 
          
          G-----------------------------------------
          D-----------------------------------------
          A--2-2-2-2-2-2-2-2-2-2-2-2-2---0-0-2-3----
          E-----------------------------------------
          
          
          DURING THE SOLO PLAY 
          
          
          G-----------------
          D-----------------
          A--0-0-2-3--------
          E-----------------
          
          RIFF 
          
          G-----------------
          D-----------------
          A--0-0-2-3--------
          E-----------------
          
          THE OTHER VERSION I FORGOT TO ADD THE BRIDGE AND I THINK THE CHOURS SOUNDS MUCH BETTER THIS 
          




=================================================================================

          Artist : WEEZER
          
          
          verse  
          chorus  
          verse  
          chorus  
          solo(during the solo just play the verse)   
          chorus  
          verse until end  
           
          
          thats all you do untill chours 
          
          g-------------
          d--0-0-2-3----
          a-------------
          e-------------
          
          
          chours 
          
          g----9-9-9-9-7-7-7-7-5-5-5-5-3-3-3-3---------------------------------
          d-----------------------------------7-7-7-7-5-5-5-5-3-3-3-3-1-1-1-1--
          a--------------------------------------------------------------------
          e--------------------------------------------------------------------
          
          
            
Tabs too difficult? Try these video lessons and learn fast.


comments powered by Disqus
↑ Back to top | Tablatures and chords are parodies/interpretations of the original songs. You may use it for private study, scholarship, research or language learning purposes only