» » »

Hash Pipe Bass tabs (ver.1)

Artists:  A B C D E F G H I J K L M N O P Q R S T U V W X Y Z # 

Hash Pipe Bass tabs (ver.1)

Weezer
Rating:
0/5 (0 votes)

Tabs too difficult? Try these video lessons and learn fast.
                Weezer
Green Album


I tavved this out in full and with the bass fills since those add
flavor to the song and keep us bass players with something to do
instead of a simple one string song. Also I always like as much help
as I can get with learning a tab and incorrect or incomplete tabs are
pretty much useless to me. I will take any song suggestions if you
have any. Thanks!

Tuning Standard - E A D G
Key of - Am
Time signature - 4/4

Intro
G|-------|
D|-------|
A|-------|
E|-/-7-\-|

Verse
G|---------------------------------|
D|-------------------------------5-|
A|-0-0-2-3-0-0-2-3-0-0-2-3-0-0\7---|
E|---------------------------------|

Pre-Chorus
G|---------------------------------|---------------------------------|
D|---------------------------------|---------------------------------|
A|-5-5-5-0-5-5----5--5-5--5-5------|-0-0-2-3-0-0-2-3-0-0-2-3-0-0-2-3-|
E|----------------------------/10\-|---------------------------------|

G|---------------------------------|
D|---------------------------5-----| Then Chorus
A|-5-5-5-0-5-5----5--5-5-5/7---7-5\|
E|---------------------------------|

Chorus
G|---------------------------------|
D|---------------------------------|
A|-----------------------------5-7-|
E|-1-1-1-1-1-1-1-1-1-1-1-1-1/7-----|

G|---------------------------------|
D|---------------------------------|
A|-7-7-7-7-7-7-7-7-7-7-7-7-7-7-7-7-|
E|---------------------------------|

G|---------------------------------|
D|---------------------------------|
A|-5-5-5-5-5-5-5-5-5-5-5-5-5-5-5-5-|
E|---------------------------------|

G|---------------------------------|
D|---------------------------------|
A|-3-3-3-3-3-3-3-3-3-3-3-3-3-3-3-3-|
E|---------------------------------|

First Chorus Ending
G|---------------------------------|
D|---------------------------------|
A|-2-2-2-2-2-2---2-2-2-2-2-2-2-2---|
E|---------------------------------|

Second Chorus Ending
G|---------------------------------|
D|--------------/9-9-9-9-9-9-9-----|
A|-2-2-2-2-2-2---------------------|
E|-----------------------------7\--|

Third Chorus Ending
G|---------------------------------|
D|-------/9-9-9-9-X-/9-9-7---------|
A|-2-2-2-------------------9-7-6\--|
E|---------------------------------|

After Second and Third Chorus
G|---------------------------------|
D|---------------------------------|
A|---------------------------------|
E|-3-3-3-3-3-3-3-3-3-3-3-3-3-3-/7\-|

Solo (Same as Verse)
G|---------------------------------|
D|-------------------------------5-|
A|-0-0-2-3-0-0-2-3-0-0-2-3-0-0/7---|
E|---------------------------------|

Ending
G|---------------------------------|
D|---------------------------------|
A|-0-0-2-3-0-0-2-3-0-0-2-3-0-0-2-3-|
E|---------------------------------|

Last Bar
G|---------------------------------|---|
D|---------------------------------|---|
A|-0-0-2-3-0-0-2-3-0-0-2-3-0-0-2-9\|-0-|
E|---------------------------------|---|
            
Tabs too difficult? Try these video lessons and learn fast.




comments powered by Disqus
↑ Back to top | Tablatures and chords are parodies/interpretations of the original songs. You may use it for private study, scholarship, research or language learning purposes only