» » »

Weezer, El Scorcho Tabs (ver.3)

Artists:  A B C D E F G H I J K L M N O P Q R S T U V W X Y Z # 

El Scorcho Tabs (ver.3)

Weezer Tabs
Rating:
0/5 (0 votes)
El Scorcho lessons Tabs too difficult? Try these video lessons and learn fast
                InTrO/VeRsE-RePeAt a LoT oF TiMeS

e|------------------------------------------------------------
B|------------------------------------------------------------
G|-------5^----------10^------------5^----------10^-----------
D|----------6------------11------------6------------11--------
A|-----6----------11--------------6----------11---------------
E|---4----------9---------------4----------9------------------

ChOrUs

e|-----------------------------------------------
B|-----------------------------------------------
G|------------6-6-6-6-----------8-8-8-8----------
D|---6-6-6-6--6-6-6-6--8-8-8-8--8-8-8-8----------
A|---6-6-6-6--4-4-4-4--8-8-8-8--6-6-6-6----------
E|---4-4-4-4-----------6-6-6-6-------------------

VeRsE2-PlAy It A LoT Of TiMeS

e|------------------------------------------------------------
B|------------------------------------------------------------
G|-------5^----------10^------------5^----------10^-----------
D|----------6------------11------------6------------11--------
A|-----6----------11--------------6----------11---------------
E|---4----------9---------------4----------9------------------

ChOrUs2---PlAy At MeDiUm SpEEd UnTiL FaSt PaRt

e|-----------------------------------------------
B|-----------------------------------------------
G|------------6-6-6-6-----------8-8-8-8----------
D|---6-6-6-6--6-6-6-6--8-8-8-8--8-8-8-8----------
A|---6-6-6-6--4-4-4-4--8-8-8-8--6-6-6-6----------
E|---4-4-4-4-----------6-6-6-6-------------------

ThEn PlAy ChOrUs At FaSt SpEEd UnTiL It SlOwS DoWn, ThEn PlAy It At NorMaL SpeeD

ThE SoLo---PlAy AfTeR ThE ChOrUs StOpS 

e|--------------------------13-11^-----18-16--15h16--------20-----16h18---------
B|---11^-----13-------9-11-------------------------16--------16----------------
G|--------------9---------------------------------------------------------------
D|------------------------------------------------------------------------------
A|------------------------------------------------------------------------------
E|------------------------------------------------------------------------------

ThEn FiNiSh It Off By PlAyInG ThE VeRsE A FeW TiMeS, ThEn ThE ChOrUs 

e|------------------------------------------------------------
B|------------------------------------------------------------
G|-------5^----------10^------------5^----------10^-----------
D|----------6------------11------------6------------11--------
A|-----6----------11--------------6----------11---------------
E|---4----------9---------------4----------9------------------


e|-----------------------------------------------
B|-----------------------------------------------
G|------------6-6-6-6-----------8-8-8-8----------
D|---6-6-6-6--6-6-6-6--8-8-8-8--8-8-8-8----------
A|---6-6-6-6--4-4-4-4--8-8-8-8--6-6-6-6----------
E|---4-4-4-4-----------6-6-6-6-------------------

AnD ThAtS It.
            

comments powered by Disqus
↑ Back to top | Weezer Tabs for El Scorcho. Lyrics for acoustic guitar and electric guitar. Tablatures and chords are parodies/interpretations of the original songs. You may use it for private study, scholarship, research or language learning purposes only