» » »

Don't Let Go Tabs (ver.3)

Artists:  A B C D E F G H I J K L M N O P Q R S T U V W X Y Z # 

Don't Let Go Tabs (ver.3)

Weezer
Rating:
0/5 (0 votes)
Tabs too difficult? Try these video lessons and learn fast.
                Don't Let Go                        
				       
E|----------------------------
B|----------------------------
G|-7-7-7-7-7-7-7--------------
D|-7-7-7-7-7-7-7--5-5-5-5-5-5- 
A|-5-5-5-5-5-5-5--5-5-5-5-5-5- 
E|----------------3-3-3-3-3-3-
			Ooh whoa oh whoa
Any time that you want I'll be here in your arms 
Silently holding on to the girl with the charms 
    
------------------------------

E|---------------------------------------------------
B|---------------------------------------------------
G|--------------4-4-4-4-4-4---------------2-2-2-2-2-2
D|-4-4-4-4-4-4--4-4-4-4-4-4--2-2-2-2-2-2--2-2-2-2-2-2
A|-4-4-4-4-4-4--2-2-2-2-2-2--2-2-2-2-2-2--0-0-0-0-0-0
E|-2-2-2-2-2-2---------------0-0-0-0-0-0-------------
But if there comes a day you should turn your heart away 
I'll be down on my knees begging for that girl to stay 

-----------------------------------------------------

E|----------------------------
B|----------------------------
G|-7-7-7-7-7-7-7--------------
D|-7-7-7-7-7-7-7--5-5-5-5-5-5- 
A|-5-5-5-5-5-5-5--5-5-5-5-5-5- 
E|----------------3-3-3-3-3-3-
Don't let go, Ooh oh whoa
Don't let go, Ooh oh whoa
Anything you desire, I will set at your feet
With a kiss in the air for the gods to receive 
    
------------------------------------------------------

E|----------------------------------------------------
B|----------------------------------------------------
G|--------------4-4-4-4-4-4---------------2-2-2-2-2-2-
D|-4-4-4-4-4-4--4-4-4-4-4-4--2-2-2-2-2-2--2-2-2-2-2-2-
A|-4-4-4-4-4-4--2-2-2-2-2-2--2-2-2-2-2-2--0-0-0-0-0-0-
E|-2-2-2-2-2-2---------------0-0-0-0-0-0--------------

   
But if there comes a day you should turn your heart away
I'll be down on my knees begging for that girl to stay 

------------------------------------------------------
Bridge: 
        
E|-------------------------
B|-------------------------
G|--------------4-4-4-4-4-4   
D|-4-4-4-4-4-4--4-4-4-4-4-4
A|-4-4-4-4-4-4--2-2-2-2-2-2
E|-2-2-2-2-2-2-------------
 Confrontations in my mind 

E|-------------------------
B|-------------------------
G|--------------5-5-5-5-5-5
D|-5-5-5-5-5-5--5-5-5-5-5-5
A|-5-5-5-5-5-5--3-3-3-3-3-3
E|-3-3-3-3-3-3-------------
 Got me running out of time 

----------------------------------------------------------
 
E|----------------------------
B|----------------------------
G|-7-7-7-7-7-7-7--------------
D|-7-7-7-7-7-7-7--5-5-5-5-5-5- 
A|-5-5-5-5-5-5-5--5-5-5-5-5-5- 
E|----------------3-3-3-3-3-3-
Don't let go, Ooh oh whoa
Don't let go, Ooh oh whoa

------------------------------------------------
 Reapeat Verse
	 Bridge
	 Chorus
            
Tabs too difficult? Try these video lessons and learn fast.


comments powered by Disqus
↑ Back to top | Tablatures and chords are parodies/interpretations of the original songs. You may use it for private study, scholarship, research or language learning purposes only