» » »

Weezer, Death And Destruction Tabs (ver.1)

Artists:  A B C D E F G H I J K L M N O P Q R S T U V W X Y Z # 

Death And Destruction Tabs (ver.1)

Weezer Tabs
Rating:
0/5 (0 votes)
Death And Destruction lessons Tabs too difficult? Try these video lessons and learn fast
                PROPS GO TO: B.Chamberlain

This is a cool slow song. I play this song with
my Gibson Les Paul and the treble up high. Sounds
better. Enjoy!

Tuning:Standard (eBGDAE)

Intro:

e|-------------------|                        ORDER:Intro 1x
B|-------------------|                              Verse 1x
G|----------4--3--2--|                              Chorus 1x
D|-10---9---4--3--2--|                              Intro 1x
A|-10---9---2--1--0--|                              Solo 1x
E|--8---7------------|                              Chorus 1x
                                                    Intro 1x
Verse:

e|----------------------------------------|
B|----------------------------------------|
G|-7-7-7-7--6-6-6-6-----------------------|
D|--7-7-7-7--7-7-7-7-9-9-9-9--9b-8b-7s-6s-|
A|--------------------5-5-5-5-------------|
E|----------------------------------------|

Chorus (let ring):

e|-----------------|
B|-----------------|
G|-----------------|
D|-8---10---11---7-|
A|-8---10---11---7-|
E|-6----8----9---5-|
           Slight PM here ...........................................
e|---------------------------------------------------------------------|
B|---------------------------------------------------------------------|
G|---------------------------------------------------------------------|
D|-11-9b------------------12-12-13-14-12-12-11-12-10-9-14-13-12-13-14b-|
A|-------16-18-15b--16-17----------------------------------------------|
E|---------------------------------------------------------------------|

e|-------------------------------------|
B|-------------------------------------|
G|-------------------------------------|
D|--------/-11-14b---------------------|
A|-17-17b----------/-13-15b------------|
E|---------------------------/-16-21b--|

Thats it!
            
Submit corrections

comments powered by Disqus
↑ Back to top | Weezer Tabs for Death And Destruction. Lyrics for acoustic guitar and electric guitar. Tablatures and chords are parodies/interpretations of the original songs. You may use it for private study, scholarship, research or language learning purposes only