» » »

Weezer, California Tabs (ver.1)

Artists:  A B C D E F G H I J K L M N O P Q R S T U V W X Y Z # 

California Tabs (ver.1)

Weezer Tabs
Rating:
0/5 (0 votes)
California lessons Tabs too difficult? Try these video lessons and learn fast
                Tuning: Eb (D# G# C# F# A# D#) –> tune down 1 step

Chords used:
E5 - 022xxx
A5 - 577xxx
G#5 - 466xxx
F#5 - 244xxx

I've listened to the Song nearly 1000 times, and I'm sure there are more than 2 
Guitars, but it will sound correct, if you use this Tab (for 2 Guitars):

Intro:

Guitar 1 Clean:
D#|---------------------|----------4----------4--|----------5----------5--|
A#|-------5----------5--|-------4----------4-----|-------5----------5-----|
F#|----4----------4-----|---------------5--------|---------------6--------|
C#|------------6--------|------------------------|------------------------|
G#|---------------------|------------------------|------------------------|
D#|0--------------------|--4---------------------|--5---------------------|
                                                                           
D#|---------------------|
A#|-------5----------5--|
F#|----4----------4-----|
C#|------------6--------|
G#|---------------------|
D#|0--------------------|


Guitar 1 plays the Intro 4 times
Guitar 2 enters at 3rd time with this riff:

Guitar 2 Disorted:
D#|-------------------|-------------------|-------------------|
A#|-------------------|-------------------|-------------------|
F#|-------------------|-------------------|-------------------|
C#|--------------2----|--6----------------|--7----------------|
G#|--------------2----|--6----------------|--7----------------|
D#|--------------0----|--4----------------|--5----------------|


When Guitar 1 finished the Intro, Guitar 2 plays following power chords (disorted):

   E5  G#5   A5  E5    :| repeat 4 times


Then there's a little Bridge:
Guitar 1 plays the Bridge (Overdriven):
Guitar 2 plays the Power chords above (Disorted):
   
     F#5                                G#5
    
D#|--12--12--12--12--12--12--12--12--|--11--11--11--11--11--11--11--11--|
A#|----------------------------------|----------------------------------|
F#|--9---9---9---9---9---9---9---9---|--8---8---8---8---8---8---8---8---|
C#|----------------------------------|----------------------------------|
G#|----------------------------------|----------------------------------|
D#|----------------------------------|----------------------------------|

                                                                                           A5                         A5
                      
D#|--9--9--9--9--9--9--9--9--|--8--8--8--8--8--8--8--8--|
A#|--------------------------|--------------------------|
F#|--6--6--6--6--6--6--6--6--|--5--5--5--5--5--5--5--5--|
C#|--------------------------|--------------------------|
G#|--------------------------|--------------------------|
D#|--------------------------|--------------------------|


Guitar 2:

E5  F#5   G#5  F#5   :| repeat 2 times

E5  G#5   A5   E5    :| repeat 3 times

F#5 G#5   A5   A5


Then there's a second Bridge:
as Bridge 1, but play twice


Guitar 2:

E5  F#5   G#5  F#5   :| repeat 2 times


Interlude:

Guitar 1 plays the Intro (Clean):
Guitar 2 plays the following Power chords (Disorted):

E5 G#5 A5 E5
(one chord for each picking lick)         
                                                                      
Guitar 2:

E5  F#5   G#5  F#5   :| repeat 4 times
                                                                    

Solo:
Too long to tab here exactly, it's really simple; you can figure it out yourself.
(Just on the F#-String, play  |: 9 – 11 – 13 - 11 :| 16 – 18 , etc. (play 8 quavers for each note)  

End:

Guitar 1 plays the Intro (Clean):  6 times

Lyrics will follow soon.
Play it, it's a great song!
            
Submit corrections

comments powered by Disqus
↑ Back to top | Weezer Tabs for California. Lyrics for acoustic guitar and electric guitar. Tablatures and chords are parodies/interpretations of the original songs. You may use it for private study, scholarship, research or language learning purposes only