>
 >
California 2

California 2 Bass Tabs

Weezer - California 2 chords, tabs, tablatures, lyrics

Guitar lessons | Add/correct | Request | Top 50 tabs Artists:  A B C D E F G H I J K L M N O P Q R S T U V W X Y Z 0-9

California 2 Bass Tabs – Weezer

CD, Sheet music, Poster

Do you like California 2? Share with your friends now
Bass TabsBass Tabs v2Tabs
-------------------------------------------------------------------------------
			  California - Weezer
-------------------------------------------------------------------------------


Tuning: Half step down.

Intro - 

G|---------------------------------------------------------------------------|
D|---------------------------------------------------------------------------|
A|---------------------------------------------------------------------------|
E|-0~------4~------5~------0~------------------------------------------------|

Verse - 4x

G|---------------------------------------------------------------------------|
D|---------------------------------------------------------------------------|
A|---------------------------------------------------------------------------|
E|-0-0-0-0-0-0-0-0-4-4-4-4-4-4-4-4-5-5-5-5-5-5-5-5-0-0-0-0-0-0-0-0----------|

Pre chorus thing - only play 1x.

G|---------------------------------------------------------------------------|
D|---------------------------------------------------------------------------|
A|---------------------------------------------------------------------------|
E|-0-0-0-0-0-0-0-0-4-4-4-4-4-4-4-4-5-5-5-5-5-5-5-5-5-5-5-5-5-5-5-5-----------|

Chorus - 2x

G|---------------------------------------------------------------------------|
D|---------------------------------------------------------------------------|
A|---------------------------------------------------------------------------|
E|-0-0-0-0-0-0-0-0-2-2-2-2-2-2-2-2-4-4-4-4-4-4-4-4-2-2-2-2-2-2-2-2-----------|

Verse again 4x.
Pre chorus 2x
Chorus 2x
Back to the intro for 1x.
Chorus 9x
Then back to the intro a few times and its over.

| /  slide up
| \  slide down
| h  hammer-on
| p  pull-off
| ~  vibrato
| +  harmonic
| x  Mute note
===============================================================================





Comments


Popular Weezer tabs & chords
Mykel And Carli 2 Bass Tabs
Waiting On You 1 Bass Tabs
Keep Fishing Chords
Say It Ain't So Chords
Automatic Tabs
Buddy Holly 2 Tabs
Hash Pipe 1 Tabs
Photograph 3 Tabs
Puerta Vallarta Tabs
This Is Such A Pity Tabs


Song lyrics



↑ Back to top | Tablatures and chords are parodies/interpretations of the original songs. You may use it for private study, scholarship, research or language learning purposes only
© 2014 AZChords.com Contact us | Privacy policy | DMCA | Add/correct tabs | Request tabs | Top 50 tabs