» » »

Automatic Tabs (ver.1)

Artists:  A B C D E F G H I J K L M N O P Q R S T U V W X Y Z # 

Automatic Tabs (ver.1)

Weezer
Rating:
5/5 (5 votes)

Hard to play? Try these video lessons and learn fast.
                Here's a sweet new Weezer song that just leaked recently, me and a friend who we shall 
"The Thin White Duke" spent some time and tried tabbing it out...here's what we came up with:

Intro:
Strum an A chord, whether you do it open or barred is all up to you

Verse:
Here's the chords set to when the words are sung, follow along at your leisure. It's a 
playing them, but the chords are:

C       D       A
 How am I going to deliver you a
C        D       A
mountain size of love
C        D    A
 How the oceans connected by
C         D         A
straw get something  through

Pre-chorus:
        C                   D
I might need sometime to remember
A
Need some time to remember

Post-Pre-chorus Picking Thing:(Kick the distortion/chorus/reverb pedals now!)
OpenC     OpenD     OpenA/G
--------------2---------------|
------1---------3---2-220-22--|
--------0---2-------2-220-22--|
----2-----0---------2-220-22--|
--3-----------------0-000-00--|
------------------------------|

Chorus: Hey yeah! It's automatic when you feel it!
----------------------------------------------------------|
----------------------------------------7-----------------|
----------------------------------------7-----------------|
--7-5-----7-5------10/9/10---7-3------10------------------|
--7-5-----7-5--7/9-----------7-3--7/9---------------------|
--5-3-x2--5-3----------------5-5--------------------------|x2

Verse 2:
Same as first, you're on your here for timing issues

Chorus: Same

Pre-chorus 2:
A   G        (weird harmonics, haven't figured them out yet)
Got some
G       F#  <--(chords here are picked)
I wanna feel it every
A  G (more weird harmonics, I'll get it eventually)
ho-ur
    G       F#      *(hit two big barred A chords here)
Cuz I wanna give it yoouuuu!!

Solo:
Good luck on this one, it takes a few tries:
---12----------------------15p14h15--15-14-12-15---------------------|
---15b17vvvvvv---13h14------------------------------14/12------------|
----------------------------------------------------14/12------------|
----------------------------------------------------14/12------------|
----------------------------------------------------14/12------------|
---------------------------------------------------------------------|

Chorus: same

Outro: Love this part
Play while a friend on another guitars strums C, D, A like the verses
--------8--------10-----------------------------------------|
------8---8---10----10-----10-------------------------------|
----5-------7------------9----9-----------------------------|
-----------------------7------------------------------------|
------------------------------------------------------------|
------------------------------------------------------------|

Sorry if you disagree with some parts, please feel free to make your own tab if you 
we came up with anything wrong. Just remember to have fun playing this awesome new Weezer 
written by Patrick Wilson!
            
Hard to play? Try these video lessons and learn fast. | Correct




comments powered by Disqus
↑ Back to top | Tablatures and chords are parodies/interpretations of the original songs. You may use it for private study, scholarship, research or language learning purposes only