>
 >
Automatic

Automatic Bass Tabs

Weezer - Automatic chords, tabs, tablatures, lyrics

Guitar lessons | Add/correct | Request | Top 50 tabs Artists:  A B C D E F G H I J K L M N O P Q R S T U V W X Y Z 0-9

Automatic Bass Tabs – Weezer

CD, Sheet music, Poster

Do you like Automatic? Share with your friends now
Bass TabsTabs
+++++++++++++++++++++
| Weezer- Automatic |
+++++++++++++++++++++


"I might need some time to remember..."


Tuning: EADG


Verse
"How am I going to..."
1.
G|---------------------------------------------|
D|-2~----4~--------------2~----4~--------------|
A|-3~----5~----4~--------3~----5~----4~--------|--x3
E|-------------5~--------------------5~--------|

Chorus
"Hey yeah, its automatic when you know it..."
2.
G|-------------------------------------|
D|-------------------------------------|
A|-------------------------------------|
E|-5~-3x----5~-3x----5~-3x----5~-3x----|

"Hey yeah, its automatic when you feel it..."
3.
G|-----------------------------5-4~-5----------|
D|-------------------------4h5-----------------|
A|---------------------------------------------|
E|-5~-3x----5~-3x----5~-3x------------5~-3x----|

Verse
"How can I reach out?..."
4.
G|---------------------------------------------|
D|-2~----4~--------------2~----4~--------------|
A|-3~----5~----4~--------3~----5~----4~--------|
E|-------------5~--------------------5~--------|

Chorus
"Hey yeah, its automatic when you know it..."
5.
G|-------------------------------------|
D|-------------------------------------|
A|-------------------------------------|
E|-5~-3x----5~-3x----5~-3x----5~-3x----|

"Hey yeah, its automatic when you feel it..."
6.
G|-----------------------------5-4~-5----------|
D|-------------------------4h5-----------------|
A|---------------------------------------------|
E|-5~-3x----5~-3x----5~-3x------------5~-3x----|

Bridge
"I got some..."
7.
G|---------------------------------------------|
D|---------------------------------------------|
A|---------------------------------0~-5~-------|
E|-5~-3x----2~---1~----5~-3x----2~-------1~----|

"So go..."
8.
G|--------------------------14--12/14~-----------|
D|----------------------------14-----------------|
A|-----------------------------------------------|
E|-5~-3x----5~-3x----5~-3x--------------5~-3x----|

Chorus
"Hey yeah, its automatic when you know it..."
9.
G|-----------------------------5-4~-5-----------------|
D|-------------------------4h5--------------4h5-------|
A|----------------------------------------------4-5~--|
E|-5~-3x----5~-3x----5~-3x------------5~-3x-----------|

"Hey yeah, its automatic when you feel it..."
10.
G|--------------------------------5-4~-5----------|
D|----------------------------4h5-----------------|
A|------------------------------------------------|
E|-5~-3x----5~-3x-5~-3x-5~-3x------------5~-3x----|

Outro
11.
G|---------------------------------------8/9~-9~-9~-9~-|
D|---------------------------7~-7~-7~-7~---------------|
A|-------------6/7~-7~-7~-7~---------------------------|
E|-5~-5~-5~-5~-----------------------------------------|

12.
G|-14~-14~-14~-14---12-14~-14~-12-----------------------------------------|
D|---------------14--------------1412-12109-------------------------------|
A|------------------------------------------12~-12-9h7-5~-9~--7~-7~-7~-7~-|
E|------------------------------------------------------------------------|

Please rate thanks!!


Lyrics:

How am I going to
Deliver you a mountain size of love?
How do oceans connected by a straw
Get something through?

I might need some time to remember
Need some time to remember

Hey! It's automatic when you know it
Hey! It's automatic when you feel it

When do I lay down
And get to see the world inside your eyes?
How can I reach out
And hold on to the joy you've got inside?

I got some
But I wanna feel it every hour
Cuz I want to give it to you



+++++++++++++++++++++++++++++++++
| Raileff                       |
+++++++++++++++++++++++++++++++++





Comments


Popular Weezer tabs & chords
King Chords
Ruling Me 1 Chords
The Good Life Chords
Beverly Hills Drum Tabs
Across The Sea 1 Tabs
Island In The Sun 1 Tabs
Last Call Tabs
Maladroit Tabs
Falling For You Ukulele
Pink Triangle Ukulele


Song lyrics



↑ Back to top | Tablatures and chords are parodies/interpretations of the original songs. You may use it for private study, scholarship, research or language learning purposes only
© 2014 AZChords.com Contact us | Privacy policy | DMCA | Add/correct tabs | Request tabs | Top 50 tabs