>
 >
American Gigolo

American Gigolo Guitar Tabs

Weezer - American Gigolo chords, tabs, tablatures, lyrics

Guitar lessons | Add/correct | Request | Top 50 tabs Artists:  A B C D E F G H I J K L M N O P Q R S T U V W X Y Z 0-9

American Gigolo Guitar Tabs – Weezer

CD, Sheet music, Poster

Do you like American Gigolo? Share with your friends now
TabsTabs v2Tabs v3

Intro:
E|------------------------------------
B|------------------------------------
G|-------------------5---5-6-6-7-7----
D|---3---3-4-4-5-5---5---5-6-6-7-7---3    x2
A|-2-3---3-4-4-5-5-3-3---3-4-4-5-5---3
E|-0-1---1-2-2-3-3-3-3---3-4-4-5-5-0-1

Verse:
F     F#       G            C                 C#      D
 Sit down be quiet everybody   we got a long way to go
   F#          G        C                   C#          D
I told you once before that you better not stop the show  B|---12/7--

Keep on 
Keep on 
Keep on 
Keep on
Keep on
Keep on
Keep on
Keep on  Yeah

Chorus:
F                Bb               F                     Bb
  If you want me                     You can't have me
E|---------------------------------------------------------------
B|---------------11----13--10------------------------------------
G|----------------------------10-----------------------10--(10)--
D|-------------------------------10------------------------------
A|---------------------------------------------------------------
E|---------------------------------------------------------------

F               Bb                     F                Bb
 Cuz you got to                          understand me
E|---------------------------------------------------------------
B|---------------11----13--10------------------------------------
G|----------------------------10-----------------------10--(10)--
D|-------------------------------10------------------------------
A|---------------------------------------------------------------
E|---------------------------------------------------------------

Bridge:
Bb           C         F       D   Bb    C            F            D
 And I've seen this game before.   My love walks right to your door
Bb          C       F      D       Bb     A           F F# G C C# D   
T here ain't no hope for me anymore       Ha ha ha ha              Yeah

Solo:
E|-10-10-10----10-10------15------------15------15-15----------15----------
B|-11-10-11-11-10-11---13-15---16/15----15---15-15-15----15-15-15----15-15
G|------------------------------------17--------------17-17-15--X----17-17-
D|-------------------------------------------------------------17----------
A|-------------------------------------------------------------------------
E|-------------------------------------------------------------------------

E|-------------------------15-15-15-15--15----15-----13----13-13---13--11
B|---15-15--------------18-15-18-18-15-b18----18-16-b16----16-15---13-b15
G|---17-15-14---(14)-14--------------------------------------------------
D|-----------------------------------------------------------------------
A|-----------------------------------------------------------------------
E|-----------------------------------------------------------------------

E|---11-11----11-11-------
B|---15-13----11-11-------
G|------------------14----
D|------------------------
A|------------------------
E|------------------------

Outro:
E|------------------------------------------------------------------------------
B|------------------------------------------------------------------------------
G|----------------5----5--6-6-7-7-x-5---5--6-6-7-7-x-5---5--6-6-7-7-x-----------
D|-3-3--4-4-5-5---5----5--6-6-7-7-x-5---5--6-6-7-7-x-5---5--6-6-7-7-x-5--5--(5)\
A|-3-3--4-4-5-5-3-3----3--4-4-5-5-x-3---3--4-4-5-5-x-3---3--4-4-5-5-x-5--5--(5)\
E|-1-1--2-2-3-3-3-3----3--4-4-5-5-x-3---3--4-4-5-5-x-3---3--4-4-5-5-x-3--3--(3)\

Verse 2: 
Back off baby I'm a loner,
I've got alot of things to see
I told you once before 
that you better not take it from me
Keep on 
Keep on 
Keep on 
Keep on
Keep on
Keep on
Keep on
Keep on  Yeah

Chorus 2:
If you hate this,
Well I can't blame you
Cuz I'm hurlin
So I'll flame you





Comments


Popular Weezer tabs & chords
Hang On Chords
Keep Fishin' Chords
The Story Of My Life Chords
Hash Pipe 6 Tabs
Peace Tabs
Perfect Situation Tabs
Perfect Situation 2 Tabs
Photograph 3 Tabs
Sugar Booger Tabs
Turning Up The Radio Tabs


Song lyrics



↑ Back to top | Tablatures and chords are parodies/interpretations of the original songs. You may use it for private study, scholarship, research or language learning purposes only
© 2014 AZChords.com Contact us | Privacy policy | DMCA | Add/correct tabs | Request tabs | Top 50 tabs