» » »

Wednesday 13, I Walked With A Zombie Tabs (ver.3)

Artists:  A B C D E F G H I J K L M N O P Q R S T U V W X Y Z # 

I Walked With A Zombie Tabs (ver.3)

Wednesday 13 Tabs
 Rating:
4/5 (4 votes)
I Walked With A Zombie lessons Tabs too difficult? Try these video lessons and learn fast
1
                Tuning:Drop C,G,C,F,A,D
Guitar 1:Wednesday 13
Guitar 2:Pig

Intro
Guitar 1
|-------------------------|
|-------------------------|
|-------------------------|
|-------------------------|
|-040------505------------|
|-040------505------------|

Guitar 2 Intro/Verse
|----------------------------------------|
|----------------------------------------|
|----------------------------------------|
|-440444444444444-550555555555555--77-55-|
|-550555555555555-555555555555555--------|
|----------------------------------77-55-|

Guitar 1 Chorus
|----------------------------------------|
|----------------------------------------|
|----------------------------------------|
|----------------------------------------|
|-004000000000000-550555555555555--77-55-|
|-004000000000000-550555555555555--77-55-|

Guitar 2 Chorus
|----------------------------------------|
|----------------------------------------|
|-11-7-7-11-7-11-12-7-12-14-12-11--------|
|----------------------------------------|
|-9--5-5-9--5-9--10-5-10-12-10-9---------|
|----------------------------------------|

Guitar 1 Verse 2
|----------------------------------------|
|----------------------------------------|
|----------------------------------------|
|----------------------------------------|
|-77777777-55555555-0040-040-040-040-----|
|-77777777-55555555-0040-040-040-040-----|

Guitar 1 Interlude
|----------------------------------------|
|----------------------------------------|
|----------------------------------------|
|----------------------------------------|
|-5555555555555555-7777777777777777------|
|-5555555555555555-7777777777777777------|

In This Bit There a 3rd guitar but you can
play what ever one you prefer.

Guitar 2 Interlude   Guitar 3
|--------------|    |-12b-12b-12b-12b-----12b-12b/-|
|-8~~-8~-10~---|    |-15b-15b-15b-15b-15--15b-15b/-|
|--------------|    |------------------------------|
|-5~~-5~-7~----|    |------------------------------|
|--------------|    |------------------------------|
|--------------|    |------------------------------|

Let ring:~
Bned:b
Slide:/

y'll be able to figure out the structure yourself
cause its easy please rate my tabs and if you want
            
Submit corrections

comments powered by Disqus
↑ Back to top | Wednesday 13 Tabs for I Walked With A Zombie. Lyrics for acoustic guitar and electric guitar. 1 Tablatures and chords are parodies/interpretations of the original songs. You may use it for private study, scholarship, research or language learning purposes only