» » »

Wednesday 13, I Walked With A Zombie Tabs (ver.2)

Artists:  A B C D E F G H I J K L M N O P Q R S T U V W X Y Z # 

I Walked With A Zombie Tabs (ver.2)

Wednesday 13 Tabs
 Rating:
4/5 (4 votes)
I Walked With A Zombie lessons Tabs too difficult? Try these video lessons and learn fast
                I'm pretty sure that this tab is 95% correct.  This is my favorite Wednesday 13 song and 
listened to it hundreds of times.  Enjoy!

   GUITAR 1  INTRO

D|--------------------------------------------------------------------------|
A|--------------------------------------------------------------------------|
F|--------------------------------------------------------------------------|
C|------4---------------------------5-5---5-5-5-5-5-5-5-5-5-7-7-5-5-----4---|
G|--5-5---5-5-5-5-5-5-5-5-5-5-5-5-5-----4---------------------------5-5---5-|
C|--------------------------------------------------------------------------|

  ---------------------------------------------------------|
  ---------------------------------------------------------|
  ---------------------------------------------------------|
  -------------------------5-5---5-5-5-5-5-5-5-5-5-7-7-5-5-|
  -5-5-5-5-5-5-5-5-5-5-5-5-----4---------------------------|
  ---------------------------------------------------------|
     GUITAR 1 CHORUS RIFF
D|---------------------------------------------------------------------|
A|---------------------------------------------------------------------|X2
F|---------------------------------------------------------------------|
C|--0-0-4-0--0-0-0-0-0-0-0-0-0-0-0-0--5-5-0-5--5-5-5-5-5-5-5-5-7-7-5-5-|
G|--0-0-4-0--0-0-0-0-0-0-0-0-0-0-0-0--5-5-0-5--5-5-5-5-5-5-5-5-7-7-5-5-|
C|--0-0-4-0--0-0-0-0-0-0-0-0-0-0-0-0--5-5-0-5--5-5-5-5-5-5-5-5-7-7-5-5-|
     GUITAR 2 CHORUS LEAD
D|----------------------------------------------|
A|--7-------7-------7-8--------8-8/10--8-7------|X2
F|------7-------7---------7----------------(7)--|
C|----------------------------------------------|
G|----------------------------------------------|
C|----------------------------------------------|
     BOTH GUITARS  VERSE PT.1
D|------------------------------------------------------------------|
A|------------------------------------------------------------------|X2
F|------------------------------------------------------------------|
C|------4---------------------------5-5---5-5-5-5-5-5-5-5-5-7-7-5-5-|
G|--5-5---5-5-5-5-5-5-5-5-5-5-5-5-5-----4---------------------------|
C|------------------------------------------------------------------|
     GUITAR 1 VERSE PT.2
D|------------------------------------------------------------------|
A|------------------------------------------------------------------|X2
F|------------------------------------------------------------------|
C|-----4----------------------------5-5---5-5-5-5-5-5-5-5-5-7-7-5-5-|
G|--5-5---5-5-5-5-5-5-5-5-5-5-5-5-5-----4---------------------------|
C|------------------------------------------------------------------|
     GUITAR 2 VERSE PT.2
D|---------------------------------------------------------------------|
A|---------------------------------------------------------------------|X2
F|---------------------------------------------------------------------|
C|--0-0-4-0--0-0-0-0-0-0-0-0-0-0-0-0--5-5-0-5--5-5-5-5-5-5-5-5-7-7-5-5-|
G|--0-0-4-0--0-0-0-0-0-0-0-0-0-0-0-0--5-5-0-5--5-5-5-5-5-5-5-5-7-7-5-5-|
C|--0-0-4-0--0-0-0-0-0-0-0-0-0-0-0-0--5-5-0-5--5-5-5-5-5-5-5-5-7-7-5-5-|
     BOTH GUITARS PRE-CHORUS
D|------------------------------------------|
A|------------------------------------------|X4
F|------------------------------------------|
C|--7------5------0-0-4---0-4-0--0-4-0--0-4-|
G|--7------5------0-0-4---0-4-0--0-4-0--0-4-|
C|--7------5------0-0-4---0-4-0--0-4-0--0-4-|
     GUITAR 1  "...I WALKED WITH A..."
D|------------------|
A|------------------|
F|------------------|
C|------------------|
G|--5-5-5-5-5-5-5-5-|
C|------------------|
     GUITAR 1 CHORUS
D|---------------------------------------------------------------------|
A|---------------------------------------------------------------------|X2
F|---------------------------------------------------------------------|
C|--0-0-4-0--0-0-0-0-0-0-0-0-0-0-0-0--5-5-0-5--5-5-5-5-5-5-5-5-7-7-5-5-|
G|--0-0-4-0--0-0-0-0-0-0-0-0-0-0-0-0--5-5-0-5--5-5-5-5-5-5-5-5-7-7-5-5-|
C|--0-0-4-0--0-0-0-0-0-0-0-0-0-0-0-0--5-5-0-5--5-5-5-5-5-5-5-5-7-7-5-5-|
     GUITAR 2 CHORUS LEAD
D|----------------------------------------------|
A|--7-------7-------7-8--------8-8/10--8-7------|X2
F|------7-------7---------7----------------(7)--|
C|----------------------------------------------|
G|----------------------------------------------|
C|----------------------------------------------|
     GUITAR 1 "...WITH A ZOMBIE..."
D|--------------------------------------------------------------------------|
A|--------------------------------------------------------------------------|
F|--------------------------------------------------------------------------|
C|------4---------------------------5-5---5-5-5-5-5-5-5-5-5-7-7-5-5-----4---|
G|--5-5---5-5-5-5-5-5-5-5-5-5-5-5-5-----4---------------------------5-5---5-|
C|--------------------------------------------------------------------------|

  ---------------------------------------------------------|
  ---------------------------------------------------------|
  ---------------------------------------------------------|
  -------------------------5-5---5-5-5-5-5-5-5-5-5-7-7-5-5-|
  -5-5-5-5-5-5-5-5-5-5-5-5-----4---------------------------|
  ---------------------------------------------------------|
     BOTH GUITARS VERSE 2 PT.1
D|------------------------------------------------------------------|
A|------------------------------------------------------------------|X2
F|------------------------------------------------------------------|
C|-----4----------------------------5-5---5-5-5-5-5-5-5-5-5-7-7-5-5-|
G|--5-5---5-5-5-5-5-5-5-5-5-5-5-5-5-----4---------------------------|
C|------------------------------------------------------------------|
     BOTH GUITARS PRE-CHORUS  "...SEE YOU IN THE GRAVEYARD AT MIDNIGHT..."
D|------------------------------------------|
A|------------------------------------------|X4
F|------------------------------------------|
C|--7------5------0-0-4---0-4-0--0-4-0--0-4-|
G|--7------5------0-0-4---0-4-0--0-4-0--0-4-|
C|--7------5------0-0-4---0-4-0--0-4-0--0-4-|
 GUITAR 1  "...I WALKED WITH A..."
D|------------------|
A|------------------|
F|------------------|
C|------------------|
G|--5-5-5-5-5-5-5-5-|
C|------------------|
        GUITAR 1 CHORUS
D|---------------------------------------------------------------------|
A|---------------------------------------------------------------------|X2
F|---------------------------------------------------------------------|
C|--0-0-4-0--0-0-0-0-0-0-0-0-0-0-0-0--5-5-0-5--5-5-5-5-5-5-5-5-7-7-5-5-|
G|--0-0-4-0--0-0-0-0-0-0-0-0-0-0-0-0--5-5-0-5--5-5-5-5-5-5-5-5-7-7-5-5-|
C|--0-0-4-0--0-0-0-0-0-0-0-0-0-0-0-0--5-5-0-5--5-5-5-5-5-5-5-5-7-7-5-5-|
     GUITAR 2 CHORUS LEAD
D|----------------------------------------------|
A|--7-------7-------7-8--------8-8/10--8-7------|X2
F|------7-------7---------7----------------(7)--|
C|----------------------------------------------|
G|----------------------------------------------|
C|----------------------------------------------|
     GUITAR 1  "...I WALKED WITH A..."
D|------------------| |-----------|
A|------------------| |-----------|
F|------------------| |-----------|
C|------------------| |--///X\\\--|
G|--5-5-5-5-5-5-5-5-| |--///X\\\--|
C|------------------| |--///X\\\--|
     BRIDGE  "...SHE MAKES ME DO EVERYTHING SHE WANTS ME TO..."
D|--------------------------|
A|--------------------------|
F|--------------------------|
C|--5-----7-----5-----7-----|
G|--5-----7-----5-----7-----|
C|--5-----7-----5-----7-----|
     BOTH GUITARS  CLAPPING AND "WHOA-OH-OH-OH" SOLO RIFF
D|---------------------------------------------------------------------|
A|---------------------------------------------------------------------|X2
F|---------------------------------------------------------------------|
C|--0-0-4-0--0-0-0-0-0-0-0-0-0-0-0-0--5-5-0-5--5-5-5-5-5-5-5-5-7-7-5-5-|
G|--0-0-4-0--0-0-0-0-0-0-0-0-0-0-0-0--5-5-0-5--5-5-5-5-5-5-5-5-7-7-5-5-|
C|--0-0-4-0--0-0-0-0-0-0-0-0-0-0-0-0--5-5-0-5--5-5-5-5-5-5-5-5-7-7-5-5-|
     BOTH GUITARS "...SEE YOU IN THE GRAVEYARD AT MIDNIGHT..."
D|------------------------------------------|
A|------------------------------------------|X4
F|------------------------------------------|
C|--7------5------0-0-4---0-4-0--0-4-0--0-4-|
G|--7------5------0-0-4---0-4-0--0-4-0--0-4-|
C|--7------5------0-0-4---0-4-0--0-4-0--0-4-|
 GUITAR 1  "...I WALKED WITH A..."
D|------------------|
A|------------------|
F|------------------|
C|------------------|
G|--5-5-5-5-5-5-5-5-|
C|------------------|
 GUITAR 1 CHORUS
D|---------------------------------------------------------------------|
A|---------------------------------------------------------------------|X4
F|---------------------------------------------------------------------|
C|--0-0-4-0--0-0-0-0-0-0-0-0-0-0-0-0--5-5-0-5--5-5-5-5-5-5-5-5-7-7-5-5-|
G|--0-0-4-0--0-0-0-0-0-0-0-0-0-0-0-0--5-5-0-5--5-5-5-5-5-5-5-5-7-7-5-5-|
C|--0-0-4-0--0-0-0-0-0-0-0-0-0-0-0-0--5-5-0-5--5-5-5-5-5-5-5-5-7-7-5-5-|
     GUITAR 2 CHORUS LEAD PT.1
D|----------------------------------------------|
A|--7-------7-------7-8--------8-8/10--8-7------|X2
F|------7-------7---------7----------------(7)--|
C|----------------------------------------------|
G|----------------------------------------------|
C|----------------------------------------------|
     GUITAR 2 CHORUS LEAD PT.2
D|--14-------14---------14-15----------15-15/17-15-14-|
A|-------15--------15------------15-------------------|X2
F|----------------------------------------------------|
C|----------------------------------------------------|
G|----------------------------------------------------|
C|----------------------------------------------------|
     GUITAR 1 ENDING
D|-------------------|
A|-------------------|
F|-------------------|
C|--7-----5-----(0)--|
G|--7-----5-----(0)--|
C|--7-----5-----(0)--|
     GUITAR 2 ENDING LEAD
D|--------------------|
A|--10--\--8----------|
F|---------------(7)--|
C|--------------------|
G|--------------------|
C|--------------------|
            
Submit corrections

comments powered by Disqus
↑ Back to top | Wednesday 13 Tabs for I Walked With A Zombie. Lyrics for acoustic guitar and electric guitar. Tablatures and chords are parodies/interpretations of the original songs. You may use it for private study, scholarship, research or language learning purposes only