» » »

Wednesday 13, I Walked With A Zombie Bass tabs (ver.1)

Artists:  A B C D E F G H I J K L M N O P Q R S T U V W X Y Z # 

I Walked With A Zombie Bass tabs (ver.1)

Wednesday 13 Tabs
Rating:
0/5 (0 votes)
I Walked With A Zombie lessons Tabs too difficult? Try these video lessons and learn fast
                
Tuning: Standard EADG

Intro
G|------------------------------------------|
D|------------------------------------------|
A|--------------------888888888888-1010-88--|
E|--8888--8888--8888------------------------|

Verse
G|---------------------------------------|
D|---------------------------------------|
A|------------------888888888888-1010-88-|
E|-8888888888888888----------------------| 

Verse pt2
G|-------------------------------------------|
D|-------------------------------------------|
A|----8------8------8---888888888888-1010-88-|
E|-88---8-88---8-88---8----------------------|x2

Before Chorus
G|----------------------------|        |--------|
D|----------------------------|        |--------|
A|-10-8----8------8------8----|        |-10~-8~-|
E|------88---8-88---8-88---88-|x3 then |--------|

Chorus
G|---------------------------------------|        |-----------|
D|---------------------------------------|        |-----------|
A|------------------888888888888-1010-88-|        |-----------|
E|-8888888888888888----------------------|x2 then |-8888-8888-|

Bridge
G|-----------------------------------------------------------------------------|
D|-----------------------------------------------------------------------------|
A|-888888888888-101010101010101010101010-888888888888-101010101010101010101010-|
E|-----------------------------------------------------------------------------|

That's the tabs roughly for this song
            

comments powered by Disqus
↑ Back to top | Wednesday 13 Bass for I Walked With A Zombie. Lyrics for acoustic guitar and electric guitar. Tablatures and chords are parodies/interpretations of the original songs. You may use it for private study, scholarship, research or language learning purposes only