» » »

We Are The In Crowd, Rumor Mill Tabs (ver.3)

Artists:  A B C D E F G H I J K L M N O P Q R S T U V W X Y Z # 

Rumor Mill Tabs (ver.3)

We Are The In Crowd Tabs
 Rating:
4/5 (4 votes)
Rumor Mill lessons Tabs too difficult? Try these video lessons and learn fast
1
                

Tuning: Drop C# (C# G# C# F# A# D#)

H = Hammer On
P = Pull Off
x = Muted Note
PM = Palm Mute



Intro: 0:08 - 0:26

e|--------------------------------------------------------------------------|
B|--------------------------------------------------------------------------|
G|---14-14-11-11-14-14-11-11--11-11-11-11---12-12-7-7-7--12-7-7--7-7-7-7----|
D|---x--x--x--x--x--x--x--x---x--x--x--x----x--x--x-x-x--x--x-x--x-x-x-x----|
A|---12-12-9--9--12-12-9--9---9--9--9--9----10-10-5-5-10-10-5-5--5-5-5-5----|
E|--------------------------------------------------------------------------|

e|------------------------------------------------------|
B|------------------------------------------------------|
G|---14-14-11-11-14--14-11-11-11-11-11-11----12---------|
D|---x--x--x--x--x---x--x--x--x--x--x--x-----x--(x16)---|
A|---12-12-9--9--12--12-9--9--9--9--9--9-----10---------|
E|------------------------------------------------------|



Verse: 0:29 - 0:41

e|----------------------------------------|
B|----------------------------------------|
G|----------------------------------------|
D|--5-5----5-5------------------5---------|
A|--5-5----5-5------5-----------3-(x32)---|
E|--5-5----5-5------5-(x32)---------------|
                  PM-------------|



Pre-chorus: 0:41 - 0:52

e|-------------------------------------------------------|
B|-------------------------------------------------------|
G|---16-16-16-16-16-16-16-16---17-17-17-17-17-17-17-17---|
D|---x--x--x--x--x--x--x--x----x--x--x--x--x--x--x--x----|
A|---14-14-14-14-14-14-14-14---15-15-15-15-15-15-15-15---|
E|-------------------------------------------------------|

e|------------------------------------------------------|
B|------------------------------------------------------|
G|---12-11-11-11-11-11-11-11--12-11-11-11-11-11-11-11---|
D|---x--x--x--x--x--x--x--x---x--x--x--x--x--x--x--x----|
A|---10-9--9--9--9--9--9--9---10-9--9--9--9--9--9--9----|
E|------------------------------------------------------|

e|-------------------------------------------------------|
B|-------------------------------------------------------|
G|---16-16-16-16-16-16-16-16---17-17-17-17-17-17-17-17---|
D|---x--x--x--x--x--x--x--x----x--x--x--x--x--x--x--x----|
A|---14-14-14-14-14-14-14-14---15-15-15-15-15-15-15-15---|
E|-------------------------------------------------------|

e|-----------------------------------------x-x-x-x---|
B|-----------------------------------------x-x-x-x---|
G|---11-11-11-11-12-12-12-12-14-14-14-14---x-x-x-x---|
D|---x--x--x--x--x--x--x--x--x--x--x--x----x-x-x-x---|
A|---9--9--9--9--10-10-10-10-12-12-12-12---x-x-x-x---|
E|-----------------------------------------x-x-x-x---|


Chorus: 0:52 - 1:13

e|------------------------------------------------------------------------|
B|------------------------------------------------------------------------|
G|---5-5-5-5-5-5-5-5-------------------7-7-7-7-7-7-7-7--------------------|
D|---5-5-5-5-5-5-5-5--5-5-5-5-5-5-5-5--7-7-7-7-7-7-7-7--2-2-2-2-2-2-2-2---|
A|---3-3-3-3-3-3-3-3--5-5-5-5-5-5-5-5--5-5-5-5-5-5-5-5--2-2-2-2-2-2-2-2---|
E|--------------------5-5-5-5-5-5-5-5-------------------2-2-2-2-2-2-2-2---|

e|----------------------------------------------------------------------------------------|
B|----------------------------------------------------------------------------------------|
G|---5-5-5-5-5-5-5-5--------------------11-11-11-11-12-12-12-12-14-14-14-14-14-14-14-14---|
D|---5-5-5-5-5-5-5-5--5-5-5-5-5-5-5-5---x--x--x--x--x--x--x--x--x--x--x--x--x--x--x--x----|
A|---3-3-3-3-3-3-3-3--5-5-5-5-5-5-5-5---9--9--9--9--10-10-10-10-12-12-12-12-12-12-12-12---|
E|--------------------5-5-5-5-5-5-5-5-----------------------------------------------------|



e|---10------------------------7h8p7-----|
B|----------8-----7-----8------------8---|
G|------7-7---7-7---7-7---7-7------------| x2
D|---------------------------------------|
A|---------------------------------------|
E|---------------------------------------|
      PM--------------------|



e|-----------------------------------------------------------------------|
B|-----------------------------------------------------------------------|
G|---5-5-5-5-5-5-5-5-------------------7-7-7-7-7-7-7-7-7-7-7-7-7-7-7-7---|
D|---5-5-5-5-5-5-5-5--5-5-5-5-5-5-5-5--7-7-7-7-7-7-7-7-7-7-7-7-7-7-7-7---|
A|---3-3-3-3-3-3-3-3--5-5-5-5-5-5-5-5--5-5-5-5-5-5-5-5-5-5-5-5-5-5-5-5---|
E|--------------------5-5-5-5-5-5-5-5------------------------------------|




1:13 - 1:24

REPEAT INTRO



Verse 2: 1:24 - 1:47

e|------------------------------------------------------------------------------------------|
B|------------------------------------------------------------------------------------------|
G|-------------------------------------------------------------------5-5--5-5---------------|
D|----------------------5--------------------5-5--5-5----2-2--2-2----5-5--5-5---------------|
A|---5---------2--------3-(x16)---5----------5-5--5-5----2-2--2-2----3-3--3-3-----5---------|
E|---5-(x16)---2-(x16)------------5-(x16)----5-5--5-5----2-2--2-2-----------------5-(x16)---|
   PM------------------------------|                                            PM-|




Pre-chorus: 1:47 - 1:56

e|-------------------------------------------------------|
B|-------------------------------------------------------|
G|---16-16-16-16-16-16-16-16---17-17-17-17-17-17-17-17---|
D|---x--x--x--x--x--x--x--x----x--x--x--x--x--x--x--x----|
A|---14-14-14-14-14-14-14-14---15-15-15-15-15-15-15-15---|
E|-------------------------------------------------------|

e|------------------------------------------------------|
B|------------------------------------------------------|
G|---12-11-11-11-11-11-11-11--12-11-11-11-11-11-11-11---|
D|---x--x--x--x--x--x--x--x---x--x--x--x--x--x--x--x----|
A|---10-9--9--9--9--9--9--9---10-9--9--9--9--9--9--9----|
E|------------------------------------------------------|

e|-------------------------------------------------------|
B|-------------------------------------------------------|
G|---16-16-16-16-16-16-16-16---17-17-17-17-17-17-17-17---|
D|---x--x--x--x--x--x--x--x----x--x--x--x--x--x--x--x----|
A|---14-14-14-14-14-14-14-14---15-15-15-15-15-15-15-15---|
E|-------------------------------------------------------|

e|--------------------------------|
B|--------------------------------|
G|---11-11-11-11-12-12-12-12-14---|
D|---x--x--x--x--x--x--x--x--x----|
A|---9--9--9--9--10-10-10-10-12---|
E|--------------------------------|




Chorus: 1:58 - 2:19

REPEAT CHORUS




e|------------------------------------------|
B|------------------------------------------|
G|---16-16-14-14-16-16-14-14--14-14-14-14---|
D|---x--x--x--x--x--x--x--x---x--x--x--x----|
A|---14-14-12-12-14-14-12-12--12-12-12-12---|
E|------------------------------------------|




Verse 3: 2:23 - 2:55

e|----------------------------------------------------------------------------|
B|----------------------------------------------------------------------------|
G|------------5-----------------7--------------------------5--------7---------|
D|---7--------5--------5--------7--------7--------2--------5--------7---------|
A|---7--------3-(x16)--5--------5-(x16)--7--------2--------3-(x16)--5-(x16)---|
E|---7-(x16)-----------5-(x16)-----------7-(x16)--2-(x16)---------------------|

e|--------------------------|
B|--------------------------|
G|--------7----5------------| Upstroke each chord and let each ring.
D|---5----7----5--------5---|
A|---5----5----3--------5---|
E|---5------------------5---|




Chorus: 2:56 - 3:17

REPEAT THE CHORUS




Outro: 3:17 - End


REPEAT THE INTRO EXCEPT END WITH 3 UPSTOKES ON THE FINAL CHORD INSTEAD OF STRUMMING



THANKS
            
Submit corrections

comments powered by Disqus
↑ Back to top | We Are The In Crowd Tabs for Rumor Mill. Lyrics for acoustic guitar and electric guitar. 1 Tablatures and chords are parodies/interpretations of the original songs. You may use it for private study, scholarship, research or language learning purposes only