» » »

We Are The In Crowd, Rumor Mill Bass tabs (ver.1)

Artists:  A B C D E F G H I J K L M N O P Q R S T U V W X Y Z # 

Rumor Mill Bass tabs (ver.1)

We Are The In Crowd Tabs
Rating:
0/5 (0 votes)
Rumor Mill lessons Tabs too difficult? Try these video lessons and learn fast
                Bass Player: Mike Ferri
Tuning: C# G# C# F#



| /  slide up
| \  slide down
| h  hammer-on
| p  pull-off
| ~  vibrato
| +  harmonic
| x  Mute note
| <> Bend note


[Notes are grouped together so that they are easier to read/count, no other reason]


Intro (0:09)

F#|-------------------------555555--------------------------------------------|
C#|---------------------------------------------------------------------------|
G#|-----------------3-3-3--------------------------3333-3333-3333-3333--------|
C#|-5-5--0--00-0000----------------5-5--0--00-0000----------------------------|

Verse (0:20)

F#|----------------------------------------------------------|
C#|--------------------------------5-------------------------|
G#|------------------------------3---------------------------|
C#|-5-5------------------------------------------------------|

F#|------------------------------------------------------------------------------------|
C#|------------------------------------------------------------------------------------|
G#|-------------------------------------2222-3333-3333-3333-3333--3333-3333-3333-3333--|
C#|-5555-5555-5555-5555--5555-5555-5555------------------------------------------------|

Pre-Chorus (0:42)

F#|-------------------------------------------------------------------------------|
C#|-------------------------------5-----------------------------------------------|
G#|-----------3333-333--------------55-5555------------3333-3333-5555-7777-9999---|
C#|-2222-2222-----------5-55-555-------------2222-2222----------------------------|

Chorus (0:52)
                                       h
F#|------------------------------------------------------------------------------------|
C#|---------------------------------------5--------------------------------------------|
G#|-3-333333--------------------------5^7---7-5--3-333333--------------------5555-5555-|
C#|----------5-555555--0-000000--2-22---------------------5-555555-0000-0000-----------|

                                         h
F#|--------------------------------------------------------------------------------------|
C#|-----------------------------------------5--------------------------------------------|
G#|-3333-3333---------------------------5^7---7-5--3-333333--------------------5555-5555-|
C#|-----------5555-5555--0000-0000--222---------------------5-555555-0000-0000-----------|

Re-Intro (1:14)
                              h p
F#|-------------------------55^7^5--------------------------------------------|
C#|---------------------------------------------------------------------------|
G#|-----------------3-3-3--------------------------3333-3333-3333-3333--------|
C#|-5-5--0--00-0000----------------5-5--0--00-0000----------------------------|

Verse (1:25)

F#|----------------------------------------------------------------------------------|
C#|----------------------------------------------------------------------------------|
G#|-----------------------------------------3333-3333-3333-3333----------------------|
C#|-5555-5555-5555-5555-2222-2222-2222-2222---------------------5555-5555-5555-5555--|

F#|----------------------------------------------------------------|
C#|----------------------------------------------------------------|
G#|-----------------------------33--33-----------------------------|
C#|-55--55--------22--22----------------------5555-5555-5555-5555--|

Pre-Chorus (0:42)

F#|----------------------------------------------------------------------------|
C#|-------------------------------5--------------------------------------------|
G#|-----------3333-333--------------55-5555------------3333-3333--5555-5555----|
C#|-2222-2222-----------5-55-555-------------2222-2222-------------------------|



Chorus (1:58)
                                       h
F#|-----------------------------------------------------------------------------------|
C#|---------------------------------------5-------------------------------------------|
G#|-3-333333--------------------------5^7---7-5--3-333333-------------------5555-5555-|
C#|----------5-555555--0-000000--2-22---------------------5-555555-0000-0000----------|

                                      
F#|----------------------------------------------------------------------------------|
C#|----------------------------------------------------------------------------------|
G#|-3333-3333---------------------------------3-333333--------------------5555-5555--|
C#|-----------5555-5555--0000-0000--2222-2222----------5-555555-0000-0000------------|

Bridge (2:20)

F#|--------------------------|
C#|--------------------------|
G#|---------777-5555-5555----|
C#|-222-000------------------|

F#|----------------------------------------------------------------------------------|
C#|----------------------------------------------------------------------------------|
G#|---------------------3333-3333-3333-3333-------------------------------5555-555---|
C#|-7777-7777-7777-7777---------------------5555-5555-5555-5555-0000-0000----------0-|

F#|---------------------------------------------------------------------------------------|
C#|---------------------------------------------------------------------------------------|
G#|-----------------------------------------3333-3333-3333-3333-5555------5555------5555--|
C#|-7777-7777-7777-7777-2222-2222-2222-2222--------------------------0000------0000-------|

F#|------------------------------------------------------------------|
C#|------------------------------------------------------------------|
G#|-------------------3---------------------------------3---3---3----|
C#|-5--------0-------------------------5--------0--------------------|

Chorus (2:56)
                                       h
F#|-----------------------------------------------------------------------------------|
C#|---------------------------------------5-------------------------------------------|
G#|-3-333333--------------------------5^7---7-5--3-333333-------------------5555-5555-|
C#|----------5-555555--0-000000--2-22---------------------5-555555-0000-0000----------|

                                         h
F#|--------------------------------------------------------------------------------------|
C#|-----------------------------------------5--------------------------------------------|
G#|-3333-3333---------------------------5^7---7-5--3-333333--------------------5555-5555-|
C#|-----------5555-5555--0000-0000--222---------------------5-555555-0000-0000-----------|

Outro (3:18)

F#|-------------------------555555--------------------------------------||
C#|--------------------------------------------------17-17-17-----------||
G#|------5----------3-3-3----------------------------15-15-15-----------||
C#|-5-5-----00-0000----------------5-5--0--00-0000----------------------||

                                                    [15 and 17]


===============================================================================
            

comments powered by Disqus
↑ Back to top | We Are The In Crowd Bass for Rumor Mill. Lyrics for acoustic guitar and electric guitar. Tablatures and chords are parodies/interpretations of the original songs. You may use it for private study, scholarship, research or language learning purposes only