» » »

We Are Scientists, Lousy Reputation Bass tabs (ver.3)

Artists:  A B C D E F G H I J K L M N O P Q R S T U V W X Y Z # 

Lousy Reputation Bass tabs (ver.3)

We Are Scientists Tabs
 Rating:
4/5 (4 votes)
Lousy Reputation lessons Tabs too difficult? Try these video lessons and learn fast
1
                ---------------------------------------------------------------------

		 Lousy reputation- We are scientists
---------------------------------------------------------------------



Tuning: standard

Intro/verse           0:13
                                                                 X 4
G|------------------------------------------------------------------|
D|------------------------------------------------------------------|
A|------2-4p2\1------------2-4p2\1----------2-2---------2(2)2-1-----|
E|--4-4----------2-4---4-4----------2---0-0----0----0-0-------------|


Pre-chorus        0:38

G|------------------------------------------------------------------|
D|------------------------------------------------------------------|
A|-------------------------------44444444-66666666------------------|
E|--44444444444444-0000000000000-------------------0000000000000000-|


Chorus        0:51
	                                                         X 2
G|------------------------------------------------------------------|
D|------------------------------------------------------------------|
A|--22222222-444444444----------------------------------------------|
E|---------------------44444444-22222222----------------------------|


Verse            1:04

G|------------------------------------------------------------------|
D|------------------------------------------------------------------|
A|------------------------------------------------------------------|
E|--4-4-4-4-4-4-4-4-0-0-0-0-0-0-0-0-2-2-2-2-2-2-2-2-0-0-0-0-0-0-0-0-|

Pre-chorus        1:17

G|------------------------------------------------------------------|
D|------------------------------------------------------------------|
A|--------------------------------44444444-66666666-----------------|
E|---44444444444444-0000000000000-------------------000000000000000-|

Chorus        1:31
                                                                 X 2
G|------------------------------------------------------------------|
D|------------------------------------------------------------------|
A|--22222222-444444444----------------------------------------------|
E|---------------------44444444-22222222----------------------------|


Bridge      1:43
	                    X 4
G|------------------------------|
D|------------------------------|
A|-----2-----2/44444444444444---|
E|---4---0-2--------------------|

Chorus        2:09
	                                                        X4
G|------------------------------------------------------------------|
D|------------------------------------------------------------------|
A|--22222222-444444444----------------------------------------------|
E|---------------------44444444-22222222----------------------------|


End on:

G|-------|
D|-------|
A|---2---|
E|-------|

| /  slide up
| \  slide down
| h  hammer-on
| p  pull-off
| ~  vibrato
| +  harmonic
| x  Mute note
            
Submit corrections

comments powered by Disqus
↑ Back to top | We Are Scientists Bass for Lousy Reputation. Lyrics for acoustic guitar and electric guitar. 1 Tablatures and chords are parodies/interpretations of the original songs. You may use it for private study, scholarship, research or language learning purposes only