» » »

Lousy Reputation Bass tabs (ver.2)

Artists:  A B C D E F G H I J K L M N O P Q R S T U V W X Y Z # 

Lousy Reputation Bass tabs (ver.2)

We Are Scientists
Rating:
0/5 (0 votes)

Hard to play? Try these video lessons and learn fast.
                
Intro/Verse


G|------------------------------------------------------------------|
D|---------11--------------------11-------------99----9-9-8---------|
A|-11-11-14----14-11-9-11---11-14---14-11-9--7----7-7---------------|
E|------------------------------------------------------------------| 

G|------------------------------------------------------------------|
D|---------11--------------------11-------------99----9998----------|
A|-11-11-14----14-11-9-11---11-14---14-11-9--7----7-7---------------|
E|------------------------------------------------------------------|  

G|------------------------------------------------------------------|
D|---------11--------------------11-------------99----9-9-8---------|
A|-11-11-14----14-11-9-11---11-14---14-11-9--7----7-7---------------|
E|------------------------------------------------------------------| (2x)

Verse (continued)


G|----66----66----66----66----99----99----99----99------------------|
D|------------------------------------------------------------------|
A|-44----44----44----44----77----77----77----77---------------------|
E|------------------------------------------------------------------|


G|----66----66----88----88----99----99----99----99------------------|
D|------------------------------------------------------------------|
A|-44----44----66----66----77----77----77----77---------------------|
E|------------------------------------------------------------------|

Chorus


G|------------------------------------------------------------------|
D|------------------------------------------------------------------|
A|---------77777777-------------------------------------------------|
E|-77777777--------4444444422222222---------------------------------| 2x

Second Verse


G|------------------------------------------------------------------|
D|------------------------------------------------------------------|
A|-11-(x16)-7-(x16)-9-(x16)-7-(x16)---------------------------------|
E|------------------------------------------------------------------|

G|------------------------------------------------------------------|
D|------------------------------------------------------------------|
A|-11-(x16)-7-(x16)-44444444-66666666-77777777----------------------|
E|------------------------------------------------------------------|

Chorus


G|------------------------------------------------------------------|
D|------------------------------------------------------------------|
A|---------77777777-------------------------------------------------|
E|-77777777--------4444444422222222---------------------------------| 2x

Breakdown
(Elevens, NOT 1's Etc.)

G|------------------------------------------------------------------|
D|------------------------------------------------------------------|
A|-11111111-14141414-77-99-11111111-16(x16)-------------------------|
E|------------------------------------------------------------------| 4x

Chorus


G|------------------------------------------------------------------|
D|------------------------------------------------------------------|
A|---------77777777-------------------------------------------------|
E|-77777777--------4444444422222222---------------------------------| 4x



And thats all.

Note: On the "Verse continued" could be played on E and A strings. Just 5 frets up.

Thanks.
            
Hard to play? Try these video lessons and learn fast. | Correct




comments powered by Disqus
↑ Back to top | Tablatures and chords are parodies/interpretations of the original songs. You may use it for private study, scholarship, research or language learning purposes only