» » »

We Are Scientists, Lousy Reputation Bass tabs (ver.1)

Artists:  A B C D E F G H I J K L M N O P Q R S T U V W X Y Z # 

Lousy Reputation Bass tabs (ver.1)

We Are Scientists Tabs
 Rating:
4/5 (4 votes)
Lousy Reputation lessons Tabs too difficult? Try these video lessons and learn fast
                   Intro:

G|---4643----4643----44---443----------|
D|-66----46-6----4-/2--222-------------|      (4x)
A|-------------------------------------|
E|-------------------------------------|

   But the 2nd time:

G|---4643----4643----44---44(4)3-------|
D|-66----46-6----4-/2--222-------------|
A|-------------------------------------|
E|-------------------------------------|

   A bigger man might not feel quite so compromised..

G|-------44~~(16x)-66~(8x)-88~(8x)-10~~---------|
D|-66~~(16x)------------------------------------|
A|----------------------------------------------|
E|----------------------------------------------|

   Chorus:
  (~ = play 8x)

G|---------------------------------------------|
D|---------66~------------66~------------------|
A|-----77~----99~-----77~-----99~--------------|
E|-77~------------77~--------------------------|

  Verse:
 (~~ = play 16x)

G|----------------------------------------------|
D|----------------------------------------------|
A|-----77~~-99~~-77~~-----77~~----66~-77~~------|
E|-77~~---------------77~~----99~---------------|

  Bridge:

Listen to the timing of the last 2x for yourself

G|-------------------------------------|
D|-6666-9999----6666-/11~~-------------|   (4x)
A|----------7799-----------------------|
E|-------------------------------------|

  Chorus:
  (~ = play 8x)

G|------------------------------------------------|
D|---------66~------------66~---------------------|   (4x)
A|-----77~----99~-----77~-----99~--~~-(end on 6.)-|
E|-77~------------77~-----------------------------|


Well I think this is it, I hope I helped you figure the song out. At least I had fun 
it, if you find errors please correct 'em. =)

Lotte
            
Submit corrections

comments powered by Disqus
↑ Back to top | We Are Scientists Bass for Lousy Reputation. Lyrics for acoustic guitar and electric guitar. Tablatures and chords are parodies/interpretations of the original songs. You may use it for private study, scholarship, research or language learning purposes only