» » »

We Are Scientists, I Don’T Bite Tabs (ver.1)

Artists:  A B C D E F G H I J K L M N O P Q R S T U V W X Y Z # 

I Don’T Bite Tabs (ver.1)

We Are Scientists Tabs
 Rating:
4/5 (4 votes)
I Don’T Bite lessons Tabs too difficult? Try these video lessons and learn fast
1
                Intro + Verse 1
e|----------------|----------------|--------------------------------|
B|----------------|----------------|--------------------------------|
G|----------------|----------------|-7--7------------7--7-----------|
D|-4--4--4--------|-7--7--7--------|-7--7--7--7-7-7--7--7--9--9-9-9-| (x4)
A|-4--4--4--2-0-2-|-7--7--7--4-2-4-|-5--5--7--7-7-7--5--5--9--9-9-9-|
E|-2--2--2--------|-5--5--5--------|-------5--5-5-5--------7--7-7-7-|

Chorus
e|-------------7-7-7-5-9-5-7-5/2-2(x8)-|
B|-5(x15)-5/---------------------------|
G|-------------------------------------|
D|-------------------------------------|
A|-------------------------------------| (x2)
E|-------------------------------------|

e|----------------|----------------|--------------------------------|
B|----------------|----------------|--------------------------------|
G|----------------|----------------|-7--7------------7--7-----------|
D|-4--4--4--------|-7--7--7--------|-7--7--7--7-7-7--7--7--9--9-9-9-|
A|-4--4--4--2-0-2-|-7--7--7--4-2-4-|-5--5--7--7-7-7--5--5--9--9-9-9-|
E|-2--2--2--------|-5--5--5--------|-------5--5-5-5--------7--7-7-7-|

Verse 2

(break)

e|----------------------------|-----------------------------|
B|----------------------------|-----------------------------|
G|----------------------------|-----------------------------|
D|----------------------------|-----------------------------|
A|----------------------2-0-2-|-----------------------4-2-4-|
E|-2--2-2-2--2-2-2--2-2-------|-5--5-5-5--5-5-5--5-5--------|

e|---------------------------|---------------------------|
B|---------------------------|---------------------------|
G|---------------------------|---------------------------|
D|---------------------------|---------------------------|
A|-5--5-5-5--5-5-------------|-5--5-5-5--5-5-------------|
E|---------------5--5-5--5-5-|---------------7--7-7--7-7-|

Chorus
e|-------------7-7-7-5-9-5-7-5/2-2(x8)-|
B|-5(x15)-5/---------------------------|
G|-------------------------------------|
D|-------------------------------------|
A|-------------------------------------| (x3)
E|-------------------------------------|

Bridge
e|--------------------------------|
B|--------------------------------|
G|-11--11--11--11--11--11--11--11-|
D|-11--11--11--11--11--11--11--11-|
A|-9---9---9---9---9---9---9---9--|
E|--------------------------------|


e|---------------------------------|
B|---------------------------------|
G|---------------------------------|
D|---------------------------------|(x2)
A|---------------------------------|
E|-2-2-2-2-4-4-4-4-5-5-5-5-7-7-7-7-|

e|-------------------|----------------------|
B|-7~--9~--10~--12~--|-7~--9~--10~--12b-12b-|
G|-------------------|----------------------|
D|-------------------|----------------------|
A|-------------------|----------------------|
E|-------------------|----------------------|

e|----------------|----------------|--------------------------------|
B|----------------|----------------|--------------------------------|
G|----------------|----------------|-7--7------------7--7-----------|
D|-4--4--4--------|-7--7--7--------|-7--7--7--7-7-7--7--7--9--9-9-9-|
A|-4--4--4--2-0-2-|-7--7--7--4-2-4-|-5--5--7--7-7-7--5--5--9--9-9-9-|
E|-2--2--2--------|-5--5--5--------|-------5--5-5-5--------7--7-7-7-|

Chorus
e|-------------7-7-7-5-9-5-7-5/2-2(x8)-|
B|-5(x15)-5/---------------------------|
G|-------------------------------------|
D|-------------------------------------|
A|-------------------------------------|(x4)
E|-------------------------------------|

Outro
e|----------------|----------------|-----------------------------------|
B|----------------|----------------|-----------------------------------|
G|----------------|----------------|-7--7------------7--7--------------|
D|-4--4--4--------|-7--7--7--------|-7--7--7--7-7-7--7--7--9--9-9-9--4-|
A|-4--4--4--2-0-2-|-7--7--7--2-0-2-|-5--5--7--7-7-7--5--5--9--9-9-9--2-|
E|-2--2--2--------|-5--5--5--------|-------5--5-5-5--------7--7-7-7--2-|
            
Submit corrections

comments powered by Disqus
↑ Back to top | We Are Scientists Tabs for I Don’T Bite. Lyrics for acoustic guitar and electric guitar. 1 Tablatures and chords are parodies/interpretations of the original songs. You may use it for private study, scholarship, research or language learning purposes only