» » »

I Don’T Bite Tabs (ver.2)

Artists:  A B C D E F G H I J K L M N O P Q R S T U V W X Y Z # 

I Don’T Bite Tabs (ver.2)

We Are Scientists
Rating:
0/5 (0 votes)
Tabs too difficult? Try these video lessons and learn fast.
                Intro/Verse - In the second verse, sit out for the first time through 
and then join back in with this riff but tremolo picked
e|-------------------------------------|
B|-------------------------------------|
G|-------------------------------------|
D|-------------------------------------|
A|------2-2--------424-5-5-----5-5-2-2-|
E|2-2-2--5---5-5-5---------5-5---------|

Chorus
e|00000000000000007775557772222222-|
B|55555555555555555555555555555555-|
G|---------------------------------|
D|---------------------------------|
A|---------------------------------|
E|---------------------------------|

Break
e|----------------|
B|----------------|
G|----------------|
D|4-4-4-4-4-4-4-4-|
A|4-4-4-4-4-4-4-4-|
E|2-2-2-2-2-2-2-2-|

e|---------------------------------|
B|---------------------------------|
G|---------------------------------|
D|---------------------------------|
A|---------------------------------|
E|22224444555577772222444455557777-|

e|--------------------------------------------|
B|--------------------------------------------|
G|1111111113-13-13-13-14-14-14-14-16-16-16-16-|
D|x-x-x-x-xx-xx-xx-xx-xx-xx-xx-xx-xx-xx-xx-xx-|
A|9-9-9-9-11-11-11-11-12-12-12-12-14-14-14-14-|
E|--------------------------------------------|

e|----------------------------------------|
B|----------------------------------------|
G|1111111113-13-13-13-14-14-14-14-16b-16b-|
D|x-x-x-x-xx-xx-xx-xx-xx-xx-xx-xx-xx--xx--|
A|9-9-9-9-11-11-11-11-12-12-12-12-14b-14b-|
E|----------------------------------------|

Enjoy..another great new one, all is looking good for "Barbara"
            
Tabs too difficult? Try these video lessons and learn fast.


comments powered by Disqus
↑ Back to top | Tablatures and chords are parodies/interpretations of the original songs. You may use it for private study, scholarship, research or language learning purposes only