» » »

We Are Scientists, I Don’T Bite Bass tabs (ver.1)

Artists:  A B C D E F G H I J K L M N O P Q R S T U V W X Y Z # 

I Don’T Bite Bass tabs (ver.1)

We Are Scientists Tabs
Rating:
0/5 (0 votes)
I Don’T Bite lessons Tabs too difficult? Try these video lessons and learn fast
                G|---------------------------------------------|
D|---------------------------------------------|
A|--------------------------5-5-------5-5-2-2-2| x4
E|2-2-2-7-5-7--5-5-5--9-7-9-----5-5-5----------|


G|---------------------------------|
D|---------------------------------| x2
A|5555555555555555-00000000--------|
E|-------------------------22222222|


G|---------------------------------------------|
D|---------------------------------------------|
A|--------------------------5-5-------5-5-2-2-2| x3
E|2-2-2-7-5-7--5-5-5--9-7-9-----5-5-5----------|


G|---------------------------------|
D|---------------------------------| x3
A|5555555555555555-00000000--------|
E|-------------------------22222222|


G|----------------|
D|----------------|
A|5-5-5-5-5-5-5-5-|
E|----------------|


G|--------------------|
D|--------------------|
A|55557777999910101010| x4
E|--------------------|


G|---------------------------------------------|
D|---------------------------------------------|
A|--------------------------5-5-------5-5-2-2-2| x1
E|2-2-2-7-5-7--5-5-5--9-7-9-----5-5-5----------|


G|------------------------------------------------------------|
D|------------------------------------------------------------|
A|1717171717171717171717171717171717-1212121212121212-99999999| x4
E|------------------------------------------------------------|


G|---------------------------------------------|
D|---------------------------------------------|
A|--------------------------5-5-------5-5-2-2-2| 
E|2-2-2-7-5-7--5-5-5--9-7-9-----5-5-5----------|
            

comments powered by Disqus
↑ Back to top | We Are Scientists Bass for I Don’T Bite. Lyrics for acoustic guitar and electric guitar. Tablatures and chords are parodies/interpretations of the original songs. You may use it for private study, scholarship, research or language learning purposes only