» » »

Weakerthans, One Great City! Tabs (ver.2)

Artists:  A B C D E F G H I J K L M N O P Q R S T U V W X Y Z # 

One Great City! Tabs (ver.2)

Weakerthans Tabs
 Rating:
4/5 (4 votes)
One Great City! lessons Tabs too difficult? Try these video lessons and learn fast
1
                
ONE GREAT CITY!
As recorded by The Weakerthans
(From the 2003 Album RECONSTRUCTION SITE)



 note:  This is definitely correct. Transcribed with The Amazing Slowdowner and Powertabs.
         enoy!


Duration Legend
---------------
W - whole; H - half; Q - quarter; E - 8th; S - 16th; T - 32nd; X - 64th; a - acciaccatura 
(grace note)
+ - note tied to previous; . - note dotted; .. - note double dotted
Uncapitalized letters represent notes that are staccato (1/2 duration)
Irregular groupings are notated above the duration line
Duration letters will always appear directly above the note/fret number it represents the
duration for.  Duration letters with no fret number below them represent rests.  Multi-
bar rests are notated in the form Wxn, where n is the number of bars to rest for.  Low
melody durations appear below the staff

Tablature Legend
----------------
 h   - hammer-on
 p   - pull-off

 <> - volume swell (louder/softer)


Misc Legend
-----------
 |  - bar
||  - double bar
||o - repeat start
o|| - repeat end
*|  - double bar (ending)

Tempo markers -  = BPM(8/16=s8/s16)

 

Gtr I (E A D G B E) - Capo 4

    E E E E E E E E   E E E E E E E E
||------------------|-----------------|
||o---3---3---3---3-|---3---3---3---3-|
||----2---2---2---2-|---0---0---0---0-|
||------------------|-----------------|
||o-----------------|-3---3---3---3---|
||--2---2---2---2---|-----------------|


  E E E E a E E E E   E E E E a E E E E
|-------------------|--------------------||
|---3---3-----3---3-|---3---3-----3---3-o||
|---0---0-----0---0-|---0---0-----0---0--||
|-------------------|--------------------||
|---------0h2---2---|---------0h2---0---o||
|-3---3-------------|-3---3--------------||


    E E E E E E E E   E E E E E E E E
||------------------|-----------------|
||o---3---3---3---3-|---3---3---3---3-|
||----2---2---2---2-|---0---0---0---0-|
||------------------|-----------------|
||o-----------------|-3---3---3---3---|
||--2---2---2---2---|-----------------|


  E E E E a E E a E E   E E E E E E E E   3x
|---------------------|-------------------||
|---3---3-----3-----3-|---3---3---3---3--o||
|---0---0-----0-----0-|---0---0---0---0---||
|---------------------|-0-----------------||
|---------0h2---2h3---|-----3---2---0----o||
|-3---3---------------|-------------------||


  E E E E E E E E   E E E E E E E E     E E E E E E E E   E E E E E E E E
|-----------------|-----------------||------------------|------------------||
|---3---3---3---3-|---3---3---3---0-||o---0---0---3---3-|---3---3---3---0-o||
|---2---2---2---2-|---0---0---0---0-||----0---0---2---2-|---0---0---0---0--||
|-----------------|-----------------||------------------|------------------||
|-----------------|-3---3---3---3---||o-----------------|-3---3---3---3---o||
|-2---2---2---2---|-----------------||--0---0---2---2---|------------------||


  E E E E E E E E   E E E E E E E E   E E E E E E E E
|-----------------|-----------------|-----------------|
|---0---0---3---3-|---2---2---2---2-|---2---2---2---0-|
|---0---0---2---2-|---2---2---2---2-|---2---2---2---0-|
|-----------------|-----------------|-----------------|
|-----------------|-0---0---0---0---|-0---0---0---0---|
|-0---0---2---2---|-----------------|-----------------|


  S S E E  E E E E E   E E E E E E E E
|--------------------|-------------------|
|-0-1-3----3---3---3-|---3---3---3---3---|
|----------0---0---0-|---0---0---0---0---|
|--------------------|-------------------|
|-3-----3----3---3---|-3---3---3---3-----|
|--------------------|-------------------|
  Q     H.


  E E E E a E E E E   E E E E a E E E E
|-------------------|-------------------|
|---3---3-----3---3-|---3---3-----3---3-|
|---0---0-----0---0-|---0---0-----0---0-|
|-------------------|-------------------|
|---------0h2---2---|---------0h2---0---|
|-3---3-------------|-3---3-------------|


    E E E E E E E E   E E E E E E E E
||------------------|-----------------|
||o---3---3---3---3-|---3---3---3---3-|
||----2---2---2---2-|---0---0---0---0-|
||------------------|-----------------|
||o-----------------|-3---3---3---3---|
||--2---2---2---2---|-----------------|


  E E E E a E E a E E   E E E E E E E E   3x
|---------------------|-------------------||
|---3---3-----3-----3-|---3---3---3---3--o||
|---0---0-----0-----0-|---0---0---0---0---||
|---------------------|-0-----------------||
|---------0h2---2h3---|-----3---2---0----o||
|-3---3---------------|-------------------||


  E E E E E E E E   E E E E E E E E     E E E E E E E E   E E E E E E E E
|-----------------|-----------------||------------------|------------------||
|---3---3---3---3-|---3---3---3---0-||o---0---0---3---3-|---3---3---3---0-o||
|---2---2---2---2-|---0---0---0---0-||----0---0---2---2-|---0---0---0---0--||
|-----------------|-----------------||------------------|------------------||
|-----------------|-3---3---3---3---||o-----------------|-3---3---3---3---o||
|-2---2---2---2---|-----------------||--0---0---2---2---|------------------||


  E E E E E E E E   E E E E E E E E   E E E E E E E E
|-----------------|-----------------|-----------------|
|---0---0---3---3-|---2---2---2---2-|---2---2---2---0-|
|---0---0---2---2-|---2---2---2---2-|---2---2---2---0-|
|-----------------|-----------------|-----------------|
|-----------------|-0---0---0---0---|-0---0---0---0---|
|-0---0---2---2---|-----------------|-----------------|


  S S E E  E E E E E   E E E E E E E E
|--------------------|-------------------|
|-0-1-3----3---3---3-|---3---3---3---3---|
|----------0---0---0-|---0---0---0---0---|
|--------------------|-------------------|
|-3-----3----3---3---|-3---3---3---3-----|
|--------------------|-------------------|
  Q     H.


  E E E E a E E E E   E E E E a E E E E
|-------------------|-------------------|
|---3---3-----3---3-|---3---3-----3---3-|
|---0---0-----0---0-|---0---0-----0---0-|
|-------------------|-------------------|
|---------0h2---2---|---------0h2---0---|
|-3---3-------------|-3---3-------------|


    E E E E E a E E E   E E E E E E E E   E E E E E E E E   E E E E E E E E
||--------------------|-----------------|-----------------|------------------||
||o---3---3---0h3---3-|---3---3---1---1-|---1---1---0-----|---1---1---0---0-o||
||----2---2---0h2---2-|---0---0---0---0-|---0---0---0---0-|---0---0---0---0--||
||--------------------|-----------------|-----------------|------------------||
||o-------------------|-3---3---3---3---|-----------------|-----------------o||
||--2---2---2-----2---|-----------------|-3---3---3---3---|-3---3---3---3----||


  E E E E E a E E E   E E E E E E E E     E E E E E E E E   E E E E E E E E   3x
|-------------------|-----------------||------------------|-------------------||
|---3---3---0h3---3-|---3---3---3---0-||o---0---0---3---3-|---3---3---3---0--o||
|---2---2---0h2---2-|---0---0---0---0-||----0---0---2---2-|---0---0---0---0---||
|-------------------|-----------------||------------------|-------------------||
|-------------------|-3---3---3---3---||o-----------------|-3---3---3---3----o||
|-2---2---2-----2---|-----------------||--0---0---2---2---|-------------------||


  E E E E E E E E   E E E E E E E E   E E E E E E E E
|-----------------|-----------------|-----------------|
|---0---0---3---3-|---2---2---2---2-|---2---2---2---0-|
|---0---0---2---2-|---2---2---2---2-|---2---2---2---0-|
|-----------------|-----------------|-----------------|
|-----------------|-0---0---0---0---|-0---0---0---0---|
|-0---0---2---2---|-----------------|-----------------|


  S S  E E E E E E E   E E E E E E E E
|--------------------|-------------------|
|-0-1--3---3---3---3-|---3---3---3---3---|
|----------0---0---0-|---0---0---0---0---|
|--------------------|-------------------|
|-3------3---3---3---|-3---3---3---3-----|
|--------------------|-------------------|
  Q H.


                    <
  E E E E E E E E   E E E E E E E E   E E E E E E E E   E E E E E E E E
|-----------------|-----------------|-----------------|-----------------|
|---3---3---0---0-|---------------0-|---3---3---3---3-|---------------3-|
|---0---0---0---0-|---0-------0---0-|---2---2---0---0-|---2---2---2---2-|
|-----------------|-------2---------|-----------------|---4---0---0-----|
|-3---3---3---3---|-3---3---3---3---|-----------------|-----------------|
|-----------------|-----------------|-2---2---2---2---|-2---2---2---2---|


                      H.=H
  E E E E a E E E E   E E E E a E E E E   E E E E  H
|-------------------|-------------------|---------^3----*|
|---3---3-----3---3-|---3---3-----3---3-|---3---3-^3----*|
|---0---0-----0---0-|---0---0-----0---0-|---0---0-^0----*|
|-------------------|-------------------|---------^0----*|
|---------0h2---2---|---------0h2---0---|-----2---^2----*|
|-3---3-------------|-3---3-------------|-3-------^3----*|




----------------------------------------------------------------------------
            
Submit corrections

comments powered by Disqus
↑ Back to top | Weakerthans Tabs for One Great City!. Lyrics for acoustic guitar and electric guitar. 1 Tablatures and chords are parodies/interpretations of the original songs. You may use it for private study, scholarship, research or language learning purposes only