» » »

Plea From A Cat Named Virtue Tabs (ver.1)

Artists:  A B C D E F G H I J K L M N O P Q R S T U V W X Y Z # 

Plea From A Cat Named Virtue Tabs (ver.1)

Weakerthans
Rating:
4/5 (2 votes)

Hard to play? Try these video lessons and learn fast.
                The Weakerthans

azimuth457
Capo 4

not well though
it might help

Intro:
e|------------------------------------------------------------------------|
B|------------------------------------------------------------------------|
G|--------------------------------------------------122-122-122-122-1212--|
D|-----------------------------644-644-644-644-6464-000-000-000-000-0000--|
A|--1199-1199-1199-1199-119119-000-000-000-000-0000-----------------------|
E|--0-00-0-00-0-00-0-00-0-00-0--------------------------------------------|


e|------------------------|
B|------------------------|
G|------------------------|
D|---644-644-644-644-6464-|
A|---000-000-000-000-0000-|
E|------------------------|

Verse:
e|---------------------|
B|---------------------|
G|---------------------|
D|--6666666666666666---|
A|--7777777777777777---|
E|--0000000000000000---|

e|---------------------|
B|---------------------|
G|---------------------|
D|--7777777777777777---|
A|--7777777777777777---|
E|--5555555555555555---|

e|---------------------|
B|---------------------|
G|---------------------|
D|--9999999999999999---|
A|--9999999999999999---|
E|--7777777777777777---|

e|---------------------|
B|---------------------|
G|---------------------|
D|--7777777777777777---|
A|--7777777777777777---|
E|--5555555555555555---|

Chorus: E, A, F#m, A

Verse
Chorus
Intro

Breakdown:(all you ever wanna do is..)
e|------------------------------|
B|---------------------------2--|
G|--11111111-----------------2--|
D|--222222224444444444444444-2--|
A|--2222222244444444xxxxxxxx-0--|
E|--000000002222222244444444----|

Piano only,
then intro plays again, with each part double the length
then it plays again the normal way,
and then the
Outro:
e|---------------------0--|
B|---------------------0--|
G|---------------------1--|
D|---------------------2--|
A|--11111199977744422--2--|
E|--0-0-0-000000000004-0--|
            
Hard to play? Try these video lessons and learn fast. | Correct




comments powered by Disqus
↑ Back to top | Tablatures and chords are parodies/interpretations of the original songs. You may use it for private study, scholarship, research or language learning purposes only