» » »

Weakerthans, One Great City! Tabs (ver.1)

Artists:  A B C D E F G H I J K L M N O P Q R S T U V W X Y Z # 

One Great City! Tabs (ver.1)

Weakerthans Tabs
 Rating:
4/5 (4 votes)
One Great City! lessons Tabs too difficult? Try these video lessons and learn fast
1
                Tuning: Standard, with Capo at 4th fret.

AIM S/N: LastYearsEnemy
This is my first tab, so please give me some feedback.


1.
e|----------------------------------|
B|---3---3---3---3---3---3---3---3--|
G|---2---2---2---0---0---0---0---0--|
D|----------------------------------|
A|------------------3---3---3---3---|
E|--2---2---2---2-------------------|

1.
2. Late afternoon, another day is nearly done.
e|-----------------------------------------------------------------|
B|--3---3---3---3---3---3---3---3---3---3---3---3---3---3---3---3--|
G|--0---0---0---0---0---0---0---0---2---2---2---0---0---0---0---0--|
D|-----------------------------------------------------------------| x2
A|-------0h2---2---------0h2---2-------------------3---3---3---3---|
E|-3---3-----------3---3-----------2---2---2---2-------------------|


1.                          A darker grey is breaking through a lighter one.
2.                          A thousand sharpened elbows in the underground.
3.                          That hollow hurried sound,
e|-----------------------------------------------------------------|
B|--3---3---3---3---3---3---3---3---3---3---3---3---3---3---3---3--|
G|--0---0---0---0---0---0---0---0---2---2---2---0---0---0---0---0--|
D|-----------------0-----------------------------------------------| X3
A|-------0h2-2h3-------3---2---0-------------------3---3---3---3---|
E|-3---3---------------------------2---2---2---2-------------------|



1. feet on polished floor.
2. And in the dollar store,
e|---------------------------------|
B|--0---0---3---3---3---3---3---3--|
G|--0---0---2---2---0---0---0---0--|
D|---------------------------------| X2
A|-----------------3---3---3---3---|
E|-0---0---2---2-------------------|


1.                          And counting loonies trying not to say I hate...
e|---------------------------------------------------------------------------------|
B|--0---0---3---3---2---2---2---2---2---2---2---0---3---3---3---3---3---3---3---3--|
G|--0---0---2---2---2---2---2---2---2---2---2---0---2---2---2---2---2---2---2---2--|
D|---------------------------------------------------------------------------------|
A|-----------------0---0---0---0---0---0---0---0---3---3---3---3---3---3---3---3---|
E|-0---0---2---2-------------------------------------------------------------------|


1. Winnipeg.                The driver checks the mirror seven minutes late.
e|-----------------------------------------------------------------|
B|--3---3---3---3---3---3---3---3---3---3---3---3---3---3---3---3--|
G|--2---2---2---2---2---2---2---2---2---2---2---0---0---0---0---0--|
D|-----------------------------------------------------------------|
A|-------0h2---2---------0h2---0-------------------3---3---3---3---|
E|-3---3-----------3---3-----------2---2---2---2-------------------|


1.                          The crowded rider's restlessness enunciates.
2.                          The Guess Who sucked, the Jets were lousy anyway.
3.                          The same route everyday.
e|-----------------------------------------------------------------|
B|--3---3---3---3---3---3---3---3---3---3---3---3---3---3---3---3--|
G|--0---0---0---0---0---0---0---0---2---2---2---0---0---0---0---0--|
D|-----------------0-----------------------------------------------| X3
A|-------0h2-2/3-------3---2---0-------------------3---3---3---3---|
E|-3---3---------------------------2---2---2---2-------------------|


1. And in the turning lane,
2. Someone's stalled again.
e|---------------------------------|
B|--0---0---3---3---3---3---3---3--|
G|--0---0---2---2---0---0---0---0--|
D|---------------------------------| X2
A|-----------------3---3---3---3---|
E|-0---0---2---2-------------------|


1. He's talking to himself And here's the price of gas, repeat his phrase. I hate...
e|---------------------------------------------------------------------------------|
B|--0---0---3---3---2---2---2---2---2---2---2---0---3---3---3---3---3---3---3---3--|
G|--0---0---2---2---2---2---2---2---2---2---2---0---2---2---2---2---2---2---2---2--|
D|---------------------------------------------------------------------------------|
A|-----------------0---0---0---0---0---0---0---0---3---3---3---3---3---3---3---3---|
E|-0---0---2---2-------------------------------------------------------------------|


1. Winnipeg
e|-----------------------------------------------------------------|
B|--3---3---3---3---3---3---3---3---3---3-0h3---3---3---3---1---1--|
G|--2---2---2---2---2---2---2---2---2---2---2---0---0---0---0---0--|
D|-----------------------------------------------------------------|
A|-------0h2---2---------0h2---0-------------------3---3---3---3---|
E|-3---3-----------3---3-----------2---2---2---2-------------------|

1.
2.
e|-----------------------------------------------------------------|
B|--1---1---0---0---1---1---0---0---3---3-0h3---3---3---3---1---1--|
G|--0---0---0---0---0---0---0---0---2---2---2---0---0---0---0---0--|
D|-----------------------------------------------------------------| x2
A|-------------------------------------------------3---3---3---3---|
E|-3---3---3---3---3---3---3---3---2---2---2---2-------------------|


1. And up above us all,
2. Leaning into sky,
3. Our golden business boy,
4. Will watch the North End die.
e|---------------------------------|
B|--0---0---3---3---3---3---3---3--|
G|--0---0---2---2---0---0---0---0--|
D|---------------------------------| X4
A|-----------------3---3---3---3---|
E|-0---0---2---2-------------------|

1. And sing, "I love this town." Then let his arcing wrecking ball proclaim...
e|---------------------------------------------------------------------------------|
B|--0---0---3---3---2---2---2---2---2---2---2---0---3---3---3---3---3---3---3---3--|
G|--0---0---2---2---2---2---2---2---2---2---2---0---2---2---2---2---2---2---2---2--|
D|---------------------------------------------------------------------------------|
A|-----------------0---0---0---0---0---0---0---0---3---3---3---3---3---3---3---3---|
E|-0---0---2---2-------------------------------------------------------------------|


1.      I...                              Hate...
e|-----------------------------------------------------------------| This
B|--3---3---3---0---0----------------------------------------------| Line is
G|--2---2---2---0---0---0-----------2---2---0---0------------------| A Little
D|--------------------------2-------0---0---0---0---4---0---0---0--| Sketchy,
A|-3---3---3---3---3---3---3---3--------------------5---0---0---0--| Sorry.
E|---------------------------------2---2----2--2---2---2---2---2---|


1.  Winnipeg.
e|----------------------------------------------------------3--|
B|--3---3---3---3---3---3---3---3---3---3---3---3---3---3---3--|
G|--0---0---0---0---0---0---0---0---2---2---2---0---0---0---0--|
D|----------------------------------------------------------0--|
A|-------0h2---2---------0h2---2---------0h2---0-------2----2--|
E|-3---3-----------3---3-----------3---3-----------3--------3--|
            
Submit corrections

comments powered by Disqus
↑ Back to top | Weakerthans Tabs for One Great City!. Lyrics for acoustic guitar and electric guitar. 1 Tablatures and chords are parodies/interpretations of the original songs. You may use it for private study, scholarship, research or language learning purposes only