» » »

Wavves, Beach Demon Tabs (ver.3)

Artists:  A B C D E F G H I J K L M N O P Q R S T U V W X Y Z # 

Beach Demon Tabs (ver.3)

Wavves Tabs
 Rating:
4/5 (4 votes)
Beach Demon lessons Tabs too difficult? Try these video lessons and learn fast
1
                -----------------------------------------------------------------------------
                             Beach Demon - The Wavves
-----------------------------------------------------------------------------

Tuning:EADGBe

 | Intro                                            |
e|--------------------------------------------------|
B|--------------------------------------------------|
G|--------------------------------------------------|
D|-4-4-4-------2-2-2--------------------------------|
A|-------2-2-2-------0-0-0---5-5-5-4-4-4-5-5-5-0-0-0|
E|--------------------------------------------------|
     Part 1                                              | Part 2
e|--9--9--7-7-7-7-7-5-5-5-5-5-5-5-5-5-5-5-5-----|-3-3-3\-|-3-3-3-3-3----|
B|--10-10-7-7-7-8-8-5-5-5-6-6-5-5-5-6-6-5-5-----|-3-3-3\-|-3-3-4-4-4----|
G|--11-11-8-8-8-9-9-6-6-6-7-7-6-6-6-7-7-6-6-----|-4-4-4\-|-4-4-5-5-5----|
D|--11-11-9-9-9-9-9-7-7-7-7-7-7-7-7-7-7-7-7--X4-|-5-5-5\-|-5-5-5-5-5--X3|
A|--9--9--9-9-9-7-7-7-7-7-5-5-7-7-7-5-5-7-7-----|-5-5-5\-|-5-5-3-3-3----|
E|--------7-7-7-----5-5-5-----5-5-5-----5-5-----|-3-3-3\-|-3-3----------|
      | Part 3|
e|-1\-|-5\-5\-|
B|-2\-|-6\-7\-|
G|-3\-|-7\-6\-|
D|----|-7\-7\-|
A|----|-5\----|
E|----|-------|
 |   Solo                                         |
e|----------------------------------------6\------|
B|-2-3-3\5---5-3-2---2-3-2-5----5555-0----5\------|
G|----------------------------------------7\------|
D|----------------------------------------7\------|
A|------------------------------------------------|
E|------------------------------------------------|

Intro
Part 1
Part 2 X4
Part 1 X2
Part 2 X4
Part 3
Part 2
Solo
Part 2

Just listen to the song for rhythm. I tried to make all the parts in order, but they 
not be perfect. It is an easy song to play.

************************************

| /   slide up
| \   slide down
| h   hammer-on
| p   pull-off
| ~   vibrato
| +   harmonic
| x   Mute note
| b   Bend
| pb  Pre-bend
| br  Bend release
| pbr Pre-bend release
| brb Bend release bend

************************************
            
Submit corrections

comments powered by Disqus
↑ Back to top | Wavves Tabs for Beach Demon. Lyrics for acoustic guitar and electric guitar. 1 Tablatures and chords are parodies/interpretations of the original songs. You may use it for private study, scholarship, research or language learning purposes only