» » »

Wavves, Beach Demon Tabs (ver.1)

Artists:  A B C D E F G H I J K L M N O P Q R S T U V W X Y Z # 

Beach Demon Tabs (ver.1)

Wavves Tabs
 Rating:
4/5 (4 votes)
Beach Demon lessons Tabs too difficult? Try these video lessons and learn fast
                For the main riff try this:
e|----------------------------------------|
B|----------------------------------------|
G|-11-11---------9-9---------5-5-6-6-6-6--|
D|-11-11-9-9-9-9-9-9-5-5-5-5-5-5-6-6-6-6--|
A|-9--9--9-9-9-9-7-7-5-5-5-5-7-7-4-4-4-4--|
E|-------7-7-7-7-----7-7-7-7--------------|

Then the chorus:

e|----------------------------------------|
B|----------------------------------------|
G|-----4-4-4-4-----4-4-4-4----------------|
D|-4-4-4-4-4-4-4-4-4-4-4-4----------------|
A|-2-2-2-2-2-2-4-4-2-2-2-2----------------|
E|-2-2---------2-2------------------------|

e|----------------------------------------|
B|----------------------------------------|
G|-----4-4-4-4-6-6-6-6-6-6-6-6------------|
D|-4-4-4-4-4-4-6-6-6-6-6-6-6-6------------|
A|-4-4-2-2-2-2-4-4-4-4-4-4-4-4------------|
E|-2-2------------------------------------|


I haven't figured out the solo, but there's your rhythm guitar part, listen to the track 
timing and all the good stuff.
            
Submit corrections

comments powered by Disqus
↑ Back to top | Wavves Tabs for Beach Demon. Lyrics for acoustic guitar and electric guitar. Tablatures and chords are parodies/interpretations of the original songs. You may use it for private study, scholarship, research or language learning purposes only