» » »

Wavves, Beach Demon Bass tabs (ver.1)

Artists:  A B C D E F G H I J K L M N O P Q R S T U V W X Y Z # 

Beach Demon Bass tabs (ver.1)

Wavves Tabs
 Rating:
4/5 (4 votes)
Beach Demon lessons Tabs too difficult? Try these video lessons and learn fast
                                         Band:Wavves
                 Written by : Nathan Williams

       Note: this song is quite tricky but easy to learn, enjoy! please rate
_____________________________________________________________________________
Intro / VVerse

---111111------999------7776-666-777---------------|
---------9-999----7-777--------------7-777---------|
-------------------------------------------    X 8-|
---------------------------------------------------|

         11 , not 1

---1111111111111111111111111111111111111---|
-------------------------------------------|
-------------------------------------------|
-------------------------------------------|

chorus:
-----------------------------------------------|
-----------------------------------------------|
-----220----220----220-2344--------------------|  X4
--222-----22-----22----------------------------|

VVerse


1st time you play it, it goes:

---111111------999------7776-666-76797--------|
---------9-999----7-777---------------7-------|
----------------------------------------------|
----------------------------------------------|

then , normal verse

---111111------999------7776-666-777---------------|
---------9-999----7-777--------------7-777---------|
-------------------------------------------    X 3-|
---------------------------------------------------|


then...

---111111------111111111111111111-------------|
---------9-999--------------------------------|
----------------------------------------------|
----------------------------------------------|


chorus:
-----------------------------------------------|
-----------------------------------------------|
-----220----220----220-2344--------------------|  X6
--222-----22-----22----------------------------|


---------------------------------------------|
---------------------------------------------|
-----220----220----220-55-44-22-00-----------|  X2
--222-----22-----22--------------------------|

-----------------------------------------------|
-----------------------------------------------|
-----220----220----220-2344--------------------|  X6
--222-----22-----22----------------------------|

outro

--------------------------------------|
--------------------------------------|
-----220----220----220-55-44-22-00----|    X2
--222-----22-----22-------------------|
            
Submit corrections

comments powered by Disqus
↑ Back to top | Wavves Bass for Beach Demon. Lyrics for acoustic guitar and electric guitar. Tablatures and chords are parodies/interpretations of the original songs. You may use it for private study, scholarship, research or language learning purposes only