» » »

Warrant, Heaven Tabs (ver.2)

Artists:  A B C D E F G H I J K L M N O P Q R S T U V W X Y Z # 

Heaven Tabs (ver.2)

Warrant Tabs
Rating:
0/5 (0 votes)
Hard to play? Try these video lessons and learn fast.
                This is the 80's song that launched Warrant into the big time.  It's mostly all 
strumming so I've roughly tabbed it but you've got to put your own feel on it.

   

-|-3-3-3--3--3-3-3-3--3-3-2-2-2-3-3-2|----------------------------------------
-|-3-3-3--3--3-3-3-3--3-3-3-3-3-3-3-3|----------------------------------------
-|-0-0-0--0--0-0-0-0--0-0-2-2-2-2-2-2|----------------------------------------
-|-2-2-2--2--2-2-0-0--0-0-0-0-0-0-0-0|----------------------------------------
-|-3-3-3--3--3-3-2-2--2-2------------|----------------------------------------
-|---------------3-3--3-3------------|----------------------------------------
  INTRO.  Standard tuning.  Strum this pretty loosely.                        

-|-3-3---3-3-3--2-2---2-2-2--3-3---3-3-3--3--3-3-3-2--2-2-2|------------------
-|-3-3---3-3-3--3-3---3-3-3--3-3---3-3-3--3--3-3-3-3--3-3-3|------------------
-|-0-0---0-0-0--2-2---2-2-2--0-0---0-0-0--0--0-0-0-2--2-2-2|------------------
-|-0-0---0-0-0--4-4---4-4-4--2-2---2-2-2--2--2-2-2-0--0-0-0|------------------
-|-2-2---2-2-2--2-2---2-2-2--3-3---3-3-3--3--3-3-3---------|------------------
-|-3-3---3-3-3---------------------------------------------|------------------
  "Got a picture of your house" This is the whole VERSE.  Play this twice!    

-|---------------2-3-3-3-3-3-|---------------2--0-2-3-------3-3|--------------
-|-------3-----3---3-3-3-3-3-|-------3-----3----0-3-3-------3-3|--------------
-|-----0-----2-----0-0-0-0-0-|-----0-----2------0-2-0-------0-0|--------------
-|---2-----0-------0-0-0-0-0-|---2-----0--------1-0-2-------2-2|--------------
-|-3---------------2-2-2-2-2-|-3--------------------3-------3-3|--------------
-|-----------------3-3-3-3-3-|---------------------------------|--------------
 "I don't need to a superman"   "As long as you'll always be.."               

-|-3--3-3-3--2--2--3--3-3-3-3-3-3--3-3-3|-3-3-3--2--2--3--3---3-3-3|----------
-|-3--3-3-3--3--3--3--3-3-3-3-3-3--3-3-3|-3-3-3--3--3--3--3---3-3-3|----------
-|-0--0-0-0--2--2--0--0-0-0-0-0-0--0-0-0|-0-0-0--2--2--0--0---0-0-0|----------
-|-0--0-0-0--0--0--2--2-2-2-2-2-2--2-2-0|-0-0-0--0--0--2--2---2-2-2|----------
-|-2--2-2-2--------3--3-3-3-3-3-3--3-3-2|-2-2-2--------3--3---3-3-3|----------
-|-3--3-3-3----------------------------3|-3-3-3--------------------|----------
  CHORUS    Play this twice!              Third time is this! Back to VERSE   

-|----------14----------------------------------------------------------------
-|-14----14----17-14----------------------------------------------------------
-|-16b18-------------17-16-14-------------------------------------------------
-|----------------------------16-14----------------------------14-16----------
-|----------------------------------16-14\12----------12-14/16----------------
-|-------------------------------------------14-12-14-------------------------
  SOLO   Great first run.  It's played almost entirley with the ring and      

------------------|--14--19b21-19b21--17h19p17-16----------|------------------
-----------14-17v-|-------------------------------17-------|------------------
--14-16/17--------|----------------------------------18/19-|------------------
------------------|----------------------------------------|------------------
------------------|----------------------------------------|------------------
------------------|----------------------------------------|------------------
 index fingers.    Sorry if this is hard to follow...I'm trying to show it    

-|---------------------------------------------------|------------------------
-|-15-15-15\14--14-14-14\12--12-12-12\10--10/-12\-10-|------------------------
-|---------------------------------------------------|------------------------
-|-12-12-12\11--11-11-11\9---9--9--9-\7---7-/-9-\-7--|------------------------
-|---------------------------------------------------|------------------------
-|---------------------------------------------------|------------------------
 in parts lick by lick!                                                       

-|---------------------------------------------9-10-11-12b14-12b14------------
-|-------------------------------------9-10-12--------------------------------
-|------------------------------9h11p9----------------------------------------
-|-----------------7h9p7/9h11p9-----------------------------------------------
-|-------------7-9------------------------------------------------------------
-|-5h7p5/7h9p7----------------------------------------------------------------
                                                                              

---10h12p10-----------------------------|-3-----------------------------------
------------14--------------------------|-3-----------------------------------
---------------14-----------------------|-0-----------------------------------
------------------14-12\11\7------------|-0-----------------------------------
-----------------------------7\5-4p0----|-2-----------------------------------
-------------------------------------2p0|-3-----------------------------------
     Slow it down here for the ending.    "Now the lights are going out"
            

comments powered by Disqus
↑ Back to top | Warrant Tabs for Heaven. Lyrics for acoustic guitar and electric guitar. Tablatures and chords are parodies/interpretations of the original songs. You may use it for private study, scholarship, research or language learning purposes only