» » »

Big Talk Bass tabs (ver.1)

Artists:  A B C D E F G H I J K L M N O P Q R S T U V W X Y Z # 

Big Talk Bass tabs (ver.1)

Warrant
Rating:
0/5 (0 votes)

Hard to play? Try these video lessons and learn fast.
                By Christopher Mcwhirter

Gb-------------------------|-------------------------|
Db-------------------------|-------------------------|
Ab-------------------------|-------------------------|
Eb-3-3-1-3-3-1-3-3-1-3-3-1-|-1-1-0-1-1-0-1-1-0-1-1-0-|

Gb-------------------------|-------------------------|-------|
Db-------------------------|-------------------------|-------|
Ab-1-1---1-1---1-1---1-1---|-3-3---3-3---3-3---3-3---|-1-1-1-|
Eb-----3-----3-----3-----3-|-------------------------|-------|

* Verse 1:

Gb-------------------|-----------------|
Db-------------------|-----------------|
Ab-------------------|-3-3-3-3-5-5-5-1-|
Eb-3-3------0-0------|-----------------|

Gb-------------------|-----------------|
Db-------------------|-----------------|
Ab-------------------|-3-3-3-3-5-5-5-1-|
Eb-3-3------0-0------|-----------------|

Gb-------------------------|
Db-------------------------|
Ab-------------------------|
Eb-3-3-1-3-3-1-3-3-1-3-3-1-|

** Verse 2:

Gb-------------------|-----------------|
Db-------------------|-----------------|
Ab-------------------|-1-1-1-1-3-3-3-5-|
Eb-3-3------0-0------|-----------------|

Gb-------------------|-----------------|
Db-------------------|-----------------|
Ab-------------------|-1-1-1-1-3-3-3-5-|
Eb-3-3------0-0------|-----------------|

**^ Chorus:

Gb-------------------------|----------------------------------|---
Db-------------------------|----------------------------------|---
Ab-3-3--5-5--1-1--6-5--3-3-|--5-5---6-5-6-5-6-1-3-5-3-1-1-1-1-|---
Eb-------------------------|----------------------------------|-3-



Gb-------------------------|-------------------------|
Db-------------------------|-------------------------|
Ab-------------------------|-------------------------|
Eb-3-3-1-3-3-1-3-3-1-3-3-1-|-1-1-0-1-1-0-1-1-0-1-1-0-|

Gb-------------------------|-------------------------|-------|
Db-------------------------|-------------------------|-------|
Ab-1-1---1-1---1-1---1-1---|-3-3---3-3---3-3---3-3---|-1-1-1-|
Eb-----3-----3-----3-----3-|-------------------------|-------|

*** Verse Three:


Gb-------------------|-----------------|
Db-------------------|-----------------|
Ab-------------------|-1-1-1-1-3-3-3-5-|
Eb-3-3------0-0------|-----------------|

Gb-------------------|-----------------|
Db-------------------|-----------------|
Ab-------------------|-1-1-1-1-3-3-3-5-|
Eb-3-3------0-0------|-----------------|

**^ Chorus:

Gb-------------------------|----------------------------------|
Db-------------------------|----------------------------------|
Ab-3-3--5-5--1-1--6-5--3-3-|--5-5---6-5-6-5-6-1-3-5-3-1-1-1-1-|
Eb-------------------------|----------------------------------|

**** Verse 4: 

Solo: 
Gb-------------------------|-------------------------|
Db-------------------------|-------------------------|
Ab-------------------------|-------------------------|
Eb-3-3-1-3-3-1-3-3-1-3-3-1-|-1-1-0-1-1-0-1-1-0-1-1-0-|

Gb-------------------------|-------------------------|-------|
Db-------------------------|-------------------------|-------|
Ab-1-1---1-1---1-1---1-1---|-3-3---3-3---3-3---3-3---|-1-1-1-|
Eb-----3-----3-----3-----3-|-------------------------|-------|

Chorus:

Gb-------------------------|----------------------------------|
Db-------------------------|----------------------------------|
Ab-3-3--5-5--1-1--6-5--3-3-|--5-5---6-5-6-5-6-1-3-5-3-1-1-1-1-|
Eb-------------------------|----------------------------------|

End:

* Street fighting is looking for trouble
  If you open your mouth
  Your bound to rumble
  Johnny looks tought
  He's foze in the eyes
  He keeps his mouth shut
  He don't tell no lies

**Johnny went out last night
  Got in a bar room fight
  Embarassed a jealous man
  In front if his cheating wife
  The man said "Tonight you won
  But I'll tell you son,
  This one's far from over"
  Johnny said

Chorus: 
Big talk is just talk
Unless, unless your backing it up
Big talk is cheap talk is
Only words unless you're backing it up
(We're backin' it up)

Verse 3:
I dont know why
Some men lay down and die
Don't they believe in what they're saying
You should get on your feet
Beleive you can't be beat
Remember talk is only playing

CHORUS

Verse 4:
I remember what my old man used to say
(We're backin' it up)
Never give up and run
(We're backin' it up)
Don't let the talkin' breeze blow you away
Always remember, stick to your guns

Big talk is looking for trouble
If you open your mouth
You better be ready to rumble
            
Hard to play? Try these video lessons and learn fast. | Correct




comments powered by Disqus
↑ Back to top | Tablatures and chords are parodies/interpretations of the original songs. You may use it for private study, scholarship, research or language learning purposes only