>
 >
Big Talk

Big Talk Guitar Tabs

Warrant - Big Talk chords, tabs, tablatures, lyrics

Guitar lessons | Add/correct | Request | Top 50 tabs Artists:  A B C D E F G H I J K L M N O P Q R S T U V W X Y Z 0-9

Big Talk Guitar Tabs – Warrant

CD, Sheet music, Poster

Do you like Big Talk? Share with your friends now
Bass TabsChordsTabsUkulele
Tuning - 1/4 step down

First Part of the intro
e|-------------------------------------------------------------12---------|
B|----15----13----12----------------------------------------12----12------|
G|-12----12----12----14-12----12----------------------12-14----------15-12|
D|-------------------------14----14-12----------12-14---------------------|
A|-------------------------------------14-12-14---------------------------|
E|------------------------------------------------------------------------|

e|-------|
B|-------|
G|-------|
D|-14-12-|
A|-------|
E|-------|

Second Part of the intro
e|-----------------------------------------------------------------------|
B|-----------------------------------------------------------------------|
G|-----------------------------------------------------------------------|
D|-----5-------5-------5-----7-5---5-------5-------5-------5-----7-5---5-|
A|-5-7-----5-7-----5-7---7-5-----7-----5-7-----5-7-----5-7---7-5-----7---|
E|-----------------------------------------------------------------------|

e|-------------------------------------------------------------------|
B|-------------------------------------------------------------------|
G|-------------------------------------------------------------------|
D|-----5-------5-------5-----7-5---5-------5-------5-----7-5---5-4-2-|
A|-5-7-----5-7-----5-7---7-5-----7-----5-7-----5-7---7-5-----7-------|
E|-------------------------------------------------------------------|

Verse
e|-------------------------------------------------------------------------|
B|-------------------------------------------------------------------------|
G|-------------------------------------------------------------------------|
D|-------2-2-----------------5-5----5--7--------2-2-----------------5-5----|
A|-5-5---2-2---3-3----3-3----3-3--3-3--5--5-5---2-2---3-3----3-3----3-3--3-|
E|-3-3---0-0---1-1--1-1-1--1--------------3-3---0-0---1-1--1-1-1--1--------|

e|-------------------------------------------------------------------------|
B|-------------------------------------------------------------------------|
G|-------------------------------------------------------------------------|
D|-5--7--5-------5-------5-------5-----7-5---------2-2-----------------5-5-|
A|-3--5------5-7-----5-7-----5-7---7-5-----7-5-5---2-2---3-3----3-3----3-3-|
E|-------------------------------------------3-3---0-0---1-1--1-1-1--1-----|

e|-----------------------------------------------|
B|-----------------------------------------------|
G|-----------------------------------------------|
D|---5--7--------2-2-----------------5-5----5--7-|
A|-3-3--5--5-5---2-2---3-3----3-3----3-3--3-3--5-|
E|---------3-3---0-0---1-1--1-1-1--1-------------|

Chorus
e|--------------------------------------------------------|
B|----8-7-8------8-7-8-------------------8-7-8------8-7-8-|
G|--------------------------------------------------------|
D|-5-5--------7-7--------9-9----9--7--5-5--------7-7------|
A|-3-3--------5-5--------7-7----7--5--3-3--------5-5------|
E|----------------------------0---------------------------|

e|-------------------------------------------------------------------------|
B|----15-------------------------------------------------------------------|
G|-16----16-14-14----14-12----12--16-14-12----12---------------------------|
D|----------------14-------14--------------14----------5-------5-----7-5---|
A|-------------------------------------------------5-7-----5-7---7-5-----7-|
E|-------------------------------------------------------------------------|

e|-------|
B|-------|
G|-------|
D|-------|
A|-5-4-2-|
E|-------|

Verse
e|-------------------------------------------------------------------------|
B|-------------------------------------------------------------------------|
G|-------------------------------------------------------------------------|
D|-------2-2-----------------5-5----5--7--------2-2-----------------5-5----|
A|-5-5---2-2---3-3----3-3----3-3--3-3--5--5-5---2-2---3-3----3-3----3-3--3-|
E|-3-3---0-0---1-1--1-1-1--1--------------3-3---0-0---1-1--1-1-1--1--------|

e|------|
B|------|
G|------|
D|-5--7-|
A|-3--5-|
E|------|

Chorus
e|---------------------------------------------------------|
B|----8-7-8-------8-7-8-------------------8-7-8------8-7-8-|
G|---------------------------------------------------------|
D|-5-5--------7-7---------9-9----9--7--5-5--------7-7------|
A|-3-3--------5-5---------7-7----7--5--3-3--------5-5------|
E|-----------------------------0---------------------------|

e|------------------------------------------------|
B|------15----------------------------------------|
G|-16-----16--14--14----14-12----12---16-14-12----|
D|-------------------14-------14---------------14-|
A|------------------------------------------------|
E|------------------------------------------------|

Before the solo
e|-------------------------------------------------------------------------|
B|-------------------------------------------------------------------------|
G|-------------------------------------------------------------------------|
D|-------------5-5---5-5---------------------------------------5-5---5-5-5-|
A|-3-3---3-3---3-33333-33333-3---3-3---5-5---5-5---3-3---3-3---3-33333-3-3-|
E|-1-11111-1111------------1-11111-11113-33333-33331-11111-1111------------|

e|-------------------------------------------------14----14-15-14-15-17-|
B|----------------------14----14-15-14-15-17-15-17----17----------------|
G|-------------16-14-16----16-------------------------------------------|
D|-2-2---2-2------------------------------------------------------------|
A|-2-2---2-2------------------------------------------------------------|
E|-0-00000-0000---------------------------------------------------------|

Guitar Solo
e|-------------------------------------------------7-4---------------|
B|-------------------------5-4---4-------------4-7-----7-4-----------|
G|-----4-----6b(8)-6b(8)-------6---6-4---6b(8)-------------6-4---4-6-|
D|-4-6---6-4---------------------------------------------------6-----|
A|-------------------------------------------------------------------|
E|-------------------------------------------------------------------|

e|-------------------------------------------------19-9-7---7-9-19-|
B|-7---6---5---5-------12----12-14b(16)-14b(16)-----------9--------|
G|---4---4---4------11----11---------------------------------------|
D|-----------------------------------------------------------------|
A|-----------------------------------------------------------------|
E|-----------------------------------------------------------------|

e|------------------------7---------------------------|
B|-12b(14)--12-12-10b(12)---10-7----------------------|
G|-------------------------------9-7------------------|
D|-----------------------------------9-7--------------|
A|---------------------------------------9-7------5---|
E|-------------------------------------------10-7---7-|

e|-------------------------------777---7-9b(11)-----7---9---11---11b(12)-|
B|-----------------------------9----999-----------7---7---7----7---------|
G|---------4-6-6b(8)-6-8-6-----------------------------------------------|
D|-----4-6---------------------------------------------------------------|
A|-4-6-------------------------------------------------------------------|
E|-----------------------------------------------------------------------|

e|---11----12----14----11----12----14----11----12----14----11----12----|
B|-12---12----12----12----12----12----12----12----12----12----12----12-|
G|---------------------------------------------------------------------|
D|---------------------------------------------------------------------|
A|---------------------------------------------------------------------|
E|---------------------------------------------------------------------|

e|-14-14-16-14-19-14-16-14-19-14-16-14-19-14-22b(24)-22b(24)-|
B|-----------------------------------------------------------|
G|-----------------------------------------------------------|
D|-----------------------------------------------------------|
A|-----------------------------------------------------------|
E|-----------------------------------------------------------|

e|--------------------|
B|--------------------|
G|-7------------------|
D|---7----------------|
A|-----5-----7777777\-|
E|--------------------|

Chorus
e|-------------------------------------------------------------------------|
B|--------------------------------------------8-7-8------8-7-8-------------|
G|-------------------------------------------------------------------------|
D|-------2-2-----------------5-5----5--7--5-5--------7-7-------9-9----9--7-|
A|-5-5---2-2---3-3----3-3----3-3--3-3--5--3-3--------5-5-------7-7----7--5-|
E|-3-3---0-0---1-1--1-1-1--1----------------------------------------0------|

e|------------------------------------------------------------------|
B|-----8-7-8------8-7-8-----15--------------------------------------|
G|-----------------------16----16-14-14----14-12----12--16-14-12----|
D|-5-5--------7-7-----------------------14-------14--------------14-|
A|-3-3--------5-5---------------------------------------------------|
E|------------------------------------------------------------------|

e|------------------------------------------------------------------|
B|-----8-7-8------8-7-8-----15--------------------------------------|
G|-----------------------16----16-14-14----14-12----12--16-14-12----|
D|-5-5--------7-7-----------------------14-------14--------------14-|
A|-3-3--------5-5---------------------------------------------------|
E|------------------------------------------------------------------|

Outro Solo
e|---------------------5-7-5-7-5-7-9-7-9-7--17-16-14-----------14b(16)-|
B|-----------5-7-5-7-5-------------------------------14----------------|
G|-4-6-4-6-4---------------------------------------------16-14---------|
D|---------------------------------------------------------------------|
A|---------------------------------------------------------------------|
E|---------------------------------------------------------------------|

e|-17-16-14-----------------------------------|
B|--------------------------------------------|
G|----------18-16-14-14------------16b(18)-16-|
D|------------------------16-14---------------|
A|------------------------------16------------|
E|--------------------------------------------|

e|----16----16-19b(21)--19-17-19-17-16--17-19-19b(21)-19b(21)-19b(21)-19-|
B|-17----17--------------------------------------------------------------|
G|-----------------------------------------------------------------------|
D|-----------------------------------------------------------------------|
A|-----------------------------------------------------------------------|
E|-----------------------------------------------------------------------|
Sorry about the last bit of the outro solo....I couldn't hear all the notes. If you can, 
try and improvise the last few seconds.

Outro/Chorus
e|-------------------------------------------------------------------------|
B|-------------------------------------------------------------------------|
G|-------------------------------------------------------------------------|
D|-7-------7-------7-------7-----9-7---7-------7-------7-------7-----9-7---|
A|-----7-9-----7-9-----7-9---9-7-----9-----7-9-----7-9-----7-9---9-7-----9-|
E|-------------------------------------------------------------------------|

e|----------------------------------------------------------------------|
B|----------------------------------------------------------------------|
G|-----------------------------------------------------14-13----11-9----|
D|-7-------7-------7-------7-----9-7---7-------7-------------14------11-|
A|-----7-9-----7-9-----7-9---9-7-----9-----7-9-----7-9------------------|
E|----------------------------------------------------------------------|

e|------------|
B|------------|
G|------------|
D|----7-------|
A|-5--5--7777-|
E|-3-----5555-|





Comments


Popular Warrant tabs & chords
Cherry Pie Bass Tabs
Down Boys Bass Tabs
I Cant Help Myself Chords
Stronger Now Chords
Blind Faith 1 Tabs
Cherry Pie Tabs
Down Boys Tabs
Love In Stereo Tabs
Sad Theresa Intro Tabs
You're The Only Hell Your Mama Ever Raised Tabs


Song lyrics



↑ Back to top | Tablatures and chords are parodies/interpretations of the original songs. You may use it for private study, scholarship, research or language learning purposes only
© 2014 AZChords.com Contact us | Privacy policy | DMCA | Add/correct tabs | Request tabs | Top 50 tabs