» » »

Chased Through The Woods Tabs (ver.3)

Artists:  A B C D E F G H I J K L M N O P Q R S T U V W X Y Z # 

Chased Through The Woods Tabs (ver.3)

Waking The Cadaver
Rating:
0/5 (0 votes)

Hard to play? Try these video lessons and learn fast.
                Artist - Waking the Cadaver
Song - Chased Through the...
Album - Demo 2006
Self Released


Palm Mute - .
Pinch Harmonic - *


---------------------------------------------|
---------------------------------------------|
---------------------------------------------|
-0-0-0--0-0-0--------------------------------|
-0-0-0--0-0-0--------------------------------|
-0-0-0--0-0-0--------------------------------|
 . . .  . . .

---------------------------------------------|
---------------------------------------------|
---------------------------------------------|
---------------------------------------------|
-----------5-4-4-4-4-4-4-4-------------------|
-0-0-0-0-7-----------------------------------|

---------------------------------------------|
---------------------------------------------|
---------------------------------------------|
-0--0-0-0-0-1-0--0-0-0-0-1-------------------|
-0--0-0-0-0-1-0--0-0-0-0-1-------------------|
-0--0-0-0-0-1-0--0-0-0-0-1-------------------|
 .  . . . . . .  . . . . .

----------------------------------------------|
----------------------------------------------|
----------------------------------------------|
-0--0-0-0-0-0--0-0-0-0-0-0-0------------------|
-0--0-0-0-0-0--0-0-0-0-0-0-0------------------|
-0--0-0-0-0-0--0-0-0-0-0-0-0------------------|
 .  . . . . .  . . . . . . .

----------------------------------------------|
----------------------------------------------|
----------------------------------------------|
----------------------------------------------|
----------4-4-3-3-x2--------4-4-3-3-x2--------|
--3-3-7-7------------7-7-6-6------------------|


----------------------------------------------|
----------------------------------------------|
----------------------------------------------|
--0-1-3----0-1-3-1-3-1------------------------|
--0-1-3-4--0-1-3-1-3-1------------------------|
--0-1-3----0-1-3-1-3-1-1----------------------|
  . . . *  . . . . . . *

----------------------------------------------|
----------------------------------------------|
----------------------------------------------|
--0-1-3----0-1-3---1-3-1----------------------|
--0-1-3-4--0-1-3---1-3-1----------------------|
--0-1-3----0-1-3-1-1-3-1-1--------------------|
  . . . *  . . . * . . . *
            
Hard to play? Try these video lessons and learn fast. | Correct




comments powered by Disqus
↑ Back to top | Tablatures and chords are parodies/interpretations of the original songs. You may use it for private study, scholarship, research or language learning purposes only