>
 >
Chased Through The Woods

Chased Through The Woods Bass Tabs

Waking The Cadaver - Chased Through The Woods chords, tabs, tablatures, lyrics

Guitar lessons | Add/correct | Request | Top 50 tabs Artists:  A B C D E F G H I J K L M N O P Q R S T U V W X Y Z 0-9

Chased Through The Woods Bass Tabs – Waking The Cadaver

CD, Sheet music, Poster

Do you like Chased Through The Woods? Share with your friends now
Bass TabsTabsTabs v2Tabs v3Tabs v4
-------------------------------------------------------------------------------
         Chased Through The Woods By A Rapist  Waking The Cadaver
-------------------------------------------------------------------------------


Tuning: BEADG

Riff 1
G|------------------------------------------|
D|------------------------------------------|
A|------------------------------------------|
E|------------------------------------------|
B|-1-1-1---------1-1-1--1-1-1---------1-1-1-| x2
                 . . .                . . .
Riff 2
G|--------------------------------------|
D|--------------------------------------|
A|-----2-1-1-1-1-1-1-1-1------2-1-------|
E|--------------------------------0-----|
B|-1-2--------------------1-2-------4-2-| x6
       . . . . . . . . .      . . . . .

Riff 3
G|-----------------------------|
D|-----------------------------|
A|-----------------------------|
E|-----------------------------|
B|-1--1-1-1-1-2--1---1-1-1-1-2-| x4
      . . . .        . . . .

Riff 4
G|---------------|--------------------------------|
D|---------------|--------------------------------|
A|---------------|--------------------------------|
E|-8/------------|--------------------------------|
B|-----1-1-1-1-1-|-1-1-1-1-1-1-1-1-1----1-1-1-1-1-| x3
       . . . .     . . . . . . . .      . . . .

Riff 5
G|-----------------|-----------------|
D|-----------------|-----------------|
A|-----------------|-----2-1-----2-1-|
E|-----------------|-----------------|
B|-1-1-1-1-1-1-1-1-|-1-2-----1-2-----| x8
   . . . . . . . .   . . . . . . . .

Riff 6
(Drumming leads into)
G|-----------------------------|
D|-----------------------------|
A|-----------------------------|
E|-------0---------------------|
B|-1--2-----4---1-1-1-1-1-1-2~-| x4

Riff 6 just slower and with another C# in there
G|-------------------------------------|
D|-------------------------------------|
A|-------------------------------------|
E|-----------0-------------------------|
B|-1----2---------4---1-1-1-2-1-1-1-2~-| x4
                            .
| /  slide up
| \  slide down
| h  hammer-on
| p  pull-off
| ~  vibrato
| +  harmonic
| x  Mute note
===============================================================================





Comments


Popular Waking The Cadaver tabs & chords
Blood Splattered Satisfaction Bass Tabs
Bloodspattered Satisfaction Bass Tabs
Blood Splattered Satisfaction Tabs
Bloodsplattered Satisfaction Tabs
Bloodsplattered Satisfaction 1 Tabs
Bludgeoned With A Tire Iron Tabs
Chased Through The Woods Tabs
Chased Through The Woods 1 Tabs
Chased Through The Woods 2 Tabs
I Know The Insides Of Women Tabs


Song lyrics



↑ Back to top | Tablatures and chords are parodies/interpretations of the original songs. You may use it for private study, scholarship, research or language learning purposes only
© 2014 AZChords.com Contact us | Privacy policy | DMCA | Add/correct tabs | Request tabs | Top 50 tabs