» » »

Waking The Cadaver, Chased Through The Woods Tabs (ver.2)

Artists:  A B C D E F G H I J K L M N O P Q R S T U V W X Y Z # 

Chased Through The Woods Tabs (ver.2)

Waking The Cadaver Tabs
Rating:
4/5 (2 votes)
Hard to play? Try these video lessons and learn fast.
                Couldn't find any tabs for this artist
so decided to learn it.

Only my second tab

Comments appreciated

Tuning - Drop C


   D
   A
   F
   C
   G
   C
       


      Intro with squeals in between & over guitar
|---------------------------------------------------|
|---------------------------------------------------|
|---------------------------------------------------|
|-0-0-0-----000-0-0-0-----000-0-0-0-----000-0-0-0---|
|-0-0-0-----000-0-0-0-----000-0-0-0-----000-0-0-0---|
|-0-0-0-----000-0-0-0-----000-0-0-0-----000-0-0-0---|
  

     Squeals over last 2 repeats
|-----------------------------------------|
|-----------------------------------------|
|-----------------------------------------|
|-00000088777777770000008877773333--------|   Repeat  6x
|-00000088777777770000008877773333--------|
|-00000088777777770000008877773333--------|


      
|------------------------------------|
|------------------------------------|
|------------------------------------|
|-0-00001--0----00001----------------|      Repeat  4x
|-0-00001--0----00001----------------|
|-0-00001--0----00001----------------|
        ^let first fret ring here

      SHOTGUN SOUND


|------------------------------------|
|------------------------------------|
|------------------------------------|
|-0--00000---000011110---------------|     Repeat  4x
|-0--00000---000011110---------------|
|-0--00000---000011110---------------|



Play really fast
|------------------------------------|
|------------------------------------|
|------------------------------------|
|-0000888899997777-------------------|    Repeat  16x
|-0000888899997777-------------------|
|-0000888899997777-------------------|


      slower part
|------------------------------------|
|------------------------------------|
|------------------------------------|
|-0-1-3---------1-3-1-3-1-3----------|    Repeat  9x 
|-0-1-3--[5]----1-3-1-3-1-3-[5]------|     
|-0-1-3---------1-3-1-3-1-3----------|    tempo decreases on last 5 repeats
    [5]=pinched harmonic on 5th fret


The version of the song I have cuts out before the end but this is pretty much it

Keep it metal.
            

comments powered by Disqus
↑ Back to top | Waking The Cadaver Tabs for Chased Through The Woods. Lyrics for acoustic guitar and electric guitar. Tablatures and chords are parodies/interpretations of the original songs. You may use it for private study, scholarship, research or language learning purposes only