» » »

Yingin And Yangin Bass tabs (ver.1)

Artists:  A B C D E F G H I J K L M N O P Q R S T U V W X Y Z # 

Yingin And Yangin Bass tabs (ver.1)

Victor Wooten
Rating:
4/5 (1 vote)

Tabs too difficult? Try these video lessons and learn fast.
                x = ghost note
/ = slide up
 = slide down
<2&6> = closed harmonic [put a finger firmly down on 2, harmonic lightness for 6]
        [place fingers RIGHT before the fret (or right on the note for fretless)]
h = hammer on
tr = trill
^ = vibrato

Technically you can play this without a 5-string bass, you'll just miss 
a few notes. But, of course, a 5-string IS useful. I do not have a 5-string, 
but i wrote where the notes should go. My ear is pretty good, and I can 
identify most notes and get them down, but the opening part and the B string 
notes may be off; I doubt it though.

This tab covers the main little riff you hear at the beginning, and the lower 
bass part of the song. The higher bass part is fairly easy to solo over if you 
want to, but I just included the low end for now.


OPENING / MAIN THEME

G|--17-------1716--19----------------------------------12------------|
D|--------19-----------19-17---12-17-16--12--15---14h12-----15tr14h12-|
A|-----19-------------------------------------------------------------|
E|--------------------------------------------------------------------|

                       [end]  
G|---------------------------||
D|---------------------------||
A|-15-14-12-------14---------||
E|----------15-14----13^-15^-||



BASS LINE (main theme stuck in there a few times)
G|---------------|-----------------------|
D|---------------|-----------------------|
A|-----------3-5-|---------5--5h3--------|
E|--5----3-5-----|--3--3-----------------|

G|--------------|-------------|--------------------|-----------------|
D|--------------|---------5h7-|--------------------|-----------------|
A|-------5-3h5--|-------5-----|----------------3-5-|-------7--5h3----|
E|--1-1---------|--3-3--------|--5---5--0-3-5------|--3-3------------|

G|--------------|-------------|------------------|-------------------|
D|--------------|---------5h7-|------------------|-------------------|
A|-------5-3h5--|-------7-----|------------3-3-5-|--------5--5h3-----|
E|--1-1---------|--3-3--------|--5--3h5-5--------|--3--3-------------|

G|--------------|-------------|--------------------------------------|
D|--------------|---------5h7-|-----------------5-5h7----------------|
A|-------5-3h5--|-------7-----|-----5--5h7-7---7---------------------|
E|--1-1---------|--3-3--------|-5-5----------------------------------|

G|---------------|--------------|-------------|----------------------|
D|---------------|--------------|---------5h7-|----------------------|
A|--------7--5h3-|------5--3h5--|-------7-----|---------------3-5----|
E|--3--3---------|--1-1---------|--3-3--------|--5--5-0-3-5----------|

G|---------------|--------------|-------------|----------------------|
D|---------------|--------------|---------5h7-|----------------------|
A|--------7--5h3-|------5--3h5--|-------7-----|---------------3-5----|
E|--3--3---------|--1-1---------|--3-3--------|--5--5-0-3-5----------|

(5-string needed for a few notes here:)        (theme change) 1:04
G|---------------|--------------|-------------|----------------------|
D|---------------|--------------|---------5h7-|----------------------|
A|--------7--5h3-|------5--3h5--|-------7-----|--5--5-5-5------------|
E|--3--3---------|--1-1---------|--3-3--------|----------------------|
B|---------------|--------------|-------------|-----------3----------|

G|--------------|----------------|---------------|-------------------|
D|-2--2-2-------|-3--3-----------|-3-3-----3-----|--0--0-0-----------|
A|---------2----|------3-3-5-3---|------------0--|---------0--0------|
E|------------0-|----------------|---------------|-------------------|
B|--------------|----------------|---------------|--------------3----|

                                                              1:23
G|--------------|----------------|-----------------------------------|
D|-2--2-2---2---|-4----------4-4-|-3-4-5*----------------------------|
A|--------------|----------------|---------------------------------12|
            
Tabs too difficult? Try these video lessons and learn fast.




comments powered by Disqus
↑ Back to top | Tablatures and chords are parodies/interpretations of the original songs. You may use it for private study, scholarship, research or language learning purposes only