» » »

Victor Wooten, Sex In A Pan Bass tabs (ver.1)

Artists:  A B C D E F G H I J K L M N O P Q R S T U V W X Y Z # 

Sex In A Pan Bass tabs (ver.1)

Victor Wooten Tabs
 Rating:
4/5 (6 votes)
Sex In A Pan lessons Tabs too difficult? Try these video lessons and learn fast
                O.K, there's no way I got this 100% but I think it's in the mid 80's.

G---------9-12-|:-----(0)----------------9-----(0)----------------9-12--------|(0)
D-(0)9-12------|:---0-------------9-9-12------0--------------9-12--------0----|
A--------------|:-------------5-------------------------5---------------------|
E--------------|:-0-------0-7---0----------0-------0--7----0-----------0------|

G-------------9-------(0)-------------9-12----(0)--------------9---(0)--------|
D--------9-12--------0-----------9-12--------0----------9-9-12----0-----------|
A-----5---------10-----------5-----------------------5--------------------5---|
E-0-7--0------------0----0-7---0-----------0-----0-7---0---------0----0-7---0-|

G------9-12--(0)-----------9--------------------9--9-7----------------------7-|
D-9-12------0---------9-12------0----------9-12-------10-9--7-5---5-7-5--7/9--|
A------------------5--------10---------5-----------------7--------3-5-7-------|
E---------0----0-7---0---------0---0-7---0---------8------------0-------0-----|

G-9-7------------------3\2-------------9-12-:|
D-----10-9--7-5--5-2-5---0-5--2---9-12------:|
A--------7-------3--------------0-----------:|
E-8------------0----------------------------:|
That's most of the song but there's also this  part that goes like so...

G------------------------:|
D------------------------:|
A-----------1------------:|
E-3-1-3-1-3--3-0-1-1-3-3-:|
That repeats 8 times, then he throws in a small octave, then repeats 4 times octave, 4 
out into this

G-9-7--12--7-----7-5--10-5\3--5--3--8----12---------9-|
D-7--------9-----5-------7----3----------8----9-9-12--|
A-8--------------6------------4--------6--------------|
E----------8-------------6-----------4----------------|

Then he goes back to the first part, with more dead notes and changes the

G----0 T ----9|
D--0-- O --9--|
A----- . -----|
E-0--- . -0---|
And that's pretty much what I got. I Know there's a few dead notes I couldn't pick out 
that's it.  Enjoy!
            
Submit corrections

comments powered by Disqus
↑ Back to top | Victor Wooten Bass for Sex In A Pan. Lyrics for acoustic guitar and electric guitar. Tablatures and chords are parodies/interpretations of the original songs. You may use it for private study, scholarship, research or language learning purposes only