» » »

The Freshman Tabs (ver.1)

Artists:  A B C D E F G H I J K L M N O P Q R S T U V W X Y Z # 

The Freshman Tabs (ver.1)

Verve Pipe
Rating:
0/5 (0 votes)

Hard to play? Try these video lessons and learn fast.
                (Acoustic)
Riff 1 = Intro/Verse/Chorus

E |-------------------------------------|-----------------5-----------------------|
B |-----------------7-------------------|-----------------------------------------|
G |-----------9-----------9-------------|-----------6---------------6-------------|
D |--------9-----9-----9-----9----------|--------7-----7---------7----------------|
A |-----7-------------------------------|-----------------------------------------|
E |-------------------------------------|-----5-----------------------------------|

E |-------------------------------------|-----------------------------------------|
B |-----------------5-------------------|-----------------------2-----------------|
G |-----------6-------------------------|-----------------2-----------------------|
D |--------6-----6-----6----------------|--------2-----2-----2--------------------|
A |-----4-------------------------------|-----2-----0-----------------------------|
E |-------------------------------------|-----------------------------------------|


Intro Variation

E |-------------------------------------|-----------------5-----------------------|
B |-------------(10)p9------------------|-----------------------------------------|
G |-----------9---------9-----9---------|-----------6---------------6-------------|
D |--------9---------------9------------|--------7-----7---------7----------------|
A |-----7-------------------------------|-----------------------------------------|
E |-------------------------------------|-----5-----------------------------------|

E |-------------------------------------|-----------------------------------------|
B |-----------------5-------------------|-----------------------2-----------------|
G |-----------6-------------------------|-----------------2-----------------------|
D |--------6-----6-----6----------------|--------2-----2-----2--------------------|
A |-----4-------------------------------|-----2-----0-----------------------------|
E |-------------------------------------|-----------------------------------------|



Riff 2 = Pre-Chorus

E |-----------------------|-----------------------|-------------------------------|
B |-----------------------|-----------------------|-------------------2-----------|
G |-------------6---------|-------------4---------|-------------2-----------------|
D |----------6-----6------|----------4-----4------|----------2-----2--------------|
A |-------4---------------|-------2---------------|-------0-----------------------|
E |-----------------------|-----------------------|-------------------------------|


Riff 3 = Bridge

E |-------------------|--------------------|-------------------|------------------|
B |-------------------|--------------------|-------------------|------------------|
G |-------------------|--------------------|---------8---------|------------------|
D |---------6---------|---------7----------|------8------------|---------8--------|
A |------6-----6------|------7-----7-------|---6---------------|------8-----8-----|
E |---4---------------|---5----------------|-------------------|---7-----------7--|



Intro                             Intro = (Riff 1) (with variation) 2X  
Verse #1                          Verse = (Riff 1) 2X
Pre-Chorus                        Pre-Chorus = (Riff 2) 4X
Chorus                            Chorus = (Riff 1) 2X
Riff Fill In                      Riff Fill In = (Riff 1) 1X
Verse #2                          Bridge = (Riff 3) 4X
Pre-Chorus                        Ending = (Riff 1) 2X     
Chorus
Bridge   
Verse #3
Pre-Chorus
Chorus 2X 
Ending


Verse #1
When I was young I knew everything
She a punk who rarely ever took advice
And now I'm guilt striken sobbing with my head on the floor
Stop a baby's breath and a shoe full of rice no

Verse #2
My best friend took a weeks vacation to forget her
HIs girl took a weeks worth of valium and slept
And now he's guilt stricken sobbing with his head on the floor
Thinks about her now and how he never really wept he says

Verse #3
Weve tried to wash our hands of all this
We never talk about our lacking relationships
And how were guilt stricken sobbing with our heads on the floor
We fell through the ice when we tried not to slip we'd say

Pre-Chorus 
I can't be held responsible
Cause she was touching her face
And I won't be hel responsible
She fell in love in the first place

Chorus
For the life of me, I cannot remember
what made us think that we were wise and we'd never compromise
For the life of me, I cannot believe
We'd ever die for these sins, we were merely freshmen



All right, that's it people, just want to shout out to my boys in the band

josh, elliot and taylor

later-
jp
            
Hard to play? Try these video lessons and learn fast. | Correct




comments powered by Disqus
↑ Back to top | Tablatures and chords are parodies/interpretations of the original songs. You may use it for private study, scholarship, research or language learning purposes only