» » »

Photograph Tabs (ver.1)

Artists:  A B C D E F G H I J K L M N O P Q R S T U V W X Y Z # 

Photograph Tabs (ver.1)

Verve Pipe
Rating:
0/5 (0 votes)

Hard to play? Try these video lessons and learn fast.
                THIS IS THE BTAB FOR THE VERVE PIPE'S SONG "PHOTOGRAPH" ON THEIR 
THIRD ALBUM "VILLIANS", WORDS AND MUSIC WRITTEN BY THE VERVE PIPE.
                       

                                 VERSE 
G -----------------------------------------------------------------|
D -----------------------------------------------------------------|
A ---------------3-----3--------------------5-----5--5^7h------|
E 5-----5---------------------3-----3----------------------------|


                            PRECHORUS
G -----------------------------------------------------------------|
D -----------------------------------------------------------------|
A -----------------------------------------------------------------|
E 5--5--5--5-----3--3--3--3-----1--1--1--1--1--1--1--1-----|


                              CHORUS
G ----------------------------------------------------------------|
D ----------------------------------------------------------------|
A ---------------------------------5--5--5--5--5--5--5--5-----|
E 5--5--5--5------3--3--3--3----------------------------------|



THAT'S IT! ITS REALLY SIMPLE.  YOUR GONNA HAVE TO FIND OUT HOW
            
Hard to play? Try these video lessons and learn fast. | Correct




comments powered by Disqus
↑ Back to top | Tablatures and chords are parodies/interpretations of the original songs. You may use it for private study, scholarship, research or language learning purposes only