>
 >
Razzi Arpia Inferno E Fiamme 2

Razzi Arpia Inferno E Fiamme 2 Guitar Tabs

Verdena - Razzi Arpia Inferno E Fiamme 2 chords, tabs, tablatures, lyrics

Guitar lessons | Add/correct | Request | Top 50 tabs Artists:  A B C D E F G H I J K L M N O P Q R S T U V W X Y Z 0-9

Razzi Arpia Inferno E Fiamme 2 Guitar Tabs – Verdena

CD, Sheet music, Poster

Do you like Razzi Arpia Inferno E Fiamme 2? Share with your friends now
TabsTabs v2Tabs v3Tabs v4
____INTRO (Chords): Gm, F, Eb



E|--3-----5/3-----3-----5/3---------|
B|----------------------------------|
G|-------------3--------------------|
D|-----5-------------5--------------|
A|---------------------------5------|
E|----------------------------------|

E|--1-----1-------11------11--------|
B|----------------------------------|
G|-----2------2---------------------|
D|----------------------------------|
A|--------------------13-------13---|
E|----------------------------------|


_____Non vivo in me, Non so chi sei  (Chords): Bb, Am


E|--6-----6-------6------6----------|
B|----------------------------------|
G|----------------------------------|
D|-----8------8------8------8-------|
A|----------------------------------|
E|----------------------------------|

E|--5-----5-------5------5----------|
B|----------------------------------|
G|----------------------------------|
D|-----7------7------7------7-------|
A|----------------------------------|
E|----------------------------------|


_____Denti per tre, io non ho piu' (Chords): Cm, Bb


E|--8-----8-------8------8----------|
B|----------------------------------|
G|----------------------------------|
D|-----10-----10-----10-----10------|
A|----------------------------------|
E|----------------------------------|

E|--6-----6-------6------6----------|
B|----------------------------------|
G|----------------------------------|
D|-----8------8------8------8-------|
A|----------------------------------|
E|----------------------------------|

Mi accigliero' (Chords): Eb, D

E|--11----11------11-----11---------|
B|----------------------------------|
G|----------------------------------|
D|-----13-----13-----13-----13------|
A|----------------------------------|
E|----------------------------------|

E|--10----10------10-----10---------|
B|----------------------------------|
G|----------------------------------|
D|-----12-----12-----12-----12------|
A|----------------------------------|
E|----------------------------------|

x2
 Dosi mai piu', rimani giu'
 Forse a Gesu' non crederei se fosse qua


L'inferno in me (Chords): C#m, G, C

E|--9-----9-------9------3----------|
B|----------------------------------|
G|----------------------------------|
D|-----11-----11-----11-----5-------|
A|----------------------------------|
E|----------------------------------|

E|--8-----8-------8------8----------|
B|----------------------------------|
G|----------------------------------|
D|-----10-----10-----10-----10------|
A|----------------------------------|
E|----------------------------------|


Va in fiamme ormai (Chords): Eb, D

E|--11----11------11-----11---------|
B|----------------------------------|
G|----------------------------------|
D|-----13-----13-----13-----13------|
A|----------------------------------|
E|----------------------------------|

E|--10----10------10-----10---------|
B|----------------------------------|
G|----------------------------------|
D|-----12-----12-----12-----12------|
A|----------------------------------|
E|----------------------------------|


_____UUUUUh x2 (Chords): Bb, Am, C, Gm, Eb, Dm, Cm

E|--6-----6-------5------5----------|
B|----------------------------------|
G|----------------------------------|
D|-----8------8------7------7-------|
A|----------------------------------|
E|----------------------------------|

E|--8-----8-------3------3----------|
B|----------------------------------|
G|----------------------------------|
D|-----10-----10-----5------5-------|
A|----------------------------------|
E|----------------------------------|

E|--11----11------10-----10---------|
B|----------------------------------|
G|----------------------------------|
D|-----13-----13-----12-----12------|
A|----------------------------------|
E|----------------------------------|

E|--8-----8-------8------8----------|
B|----------------------------------|
G|----------------------------------|
D|-----10-----10-----10-----10------|
A|----------------------------------|
E|----------------------------------|


______Razzi, arpia, danni miei, piu' che mai danni miei (Chords):Eb,Gm,Bb,Gm

E|--11----11------11-----11---------|
B|----------------------------------|
G|----------------------------------|
D|-----13-----13-----13-----13------|
A|----------------------------------|
E|----------------------------------|

E|--3-----3-------3------3----------|
B|----------------------------------|
G|----------------------------------|
D|-----5------5------5------5-------|
A|----------------------------------|
E|----------------------------------|

E|--5-----5-------5------5----------|
B|----------------------------------|
G|----------------------------------|
D|-----7------7------7------7-------|
A|----------------------------------|
E|----------------------------------|

E|--3-----3-------3------3----------|
B|----------------------------------|
G|----------------------------------|
D|-----5------5------5------5-------|
A|----------------------------------|
E|----------------------------------|

x2 Pause nel tempo riavrai, mentre la mente e' in orbita





Comments


Popular Verdena tabs & chords
Dentro Sharon Bass Tabs
Onan 1 Bass Tabs
Starless Bass Tabs
Zoe 1 Bass Tabs
Glamodrama Chords
Luna Chords
Rossella Roll Over Chords
Razzi Arpia Inferno E Fiamme 3 Tabs
Luna Ukulele
Mina Ukulele


Song lyrics



↑ Back to top | Tablatures and chords are parodies/interpretations of the original songs. You may use it for private study, scholarship, research or language learning purposes only
© 2014 AZChords.com Contact us | Privacy policy | DMCA | Add/correct tabs | Request tabs | Top 50 tabs