>
 >
Razzi Arpia Inferno E Fiamme

Razzi Arpia Inferno E Fiamme Guitar Tabs

Verdena - Razzi Arpia Inferno E Fiamme chords, tabs, tablatures, lyrics

Guitar lessons | Add/correct | Request | Top 50 tabs Artists:  A B C D E F G H I J K L M N O P Q R S T U V W X Y Z 0-9

Razzi Arpia Inferno E Fiamme Guitar Tabs – Verdena

CD, Sheet music, Poster

Do you like Razzi Arpia Inferno E Fiamme? Share with your friends now
TabsTabs v2Tabs v3Tabs v4




intro x 6
|3----5p3---|
|--0------0-|
|-----------|    Hello Miss Jane
|-----------|
|-----------|
|3----3-----|




|3----5p3---|3----5p3---|-/1----1----|/11----11----|
|--0------0-|--0------0-|----0----0--|----0-----0--|
|-----------|-----------|------------|-------------|       x 2
|-----------|-----------|------------|-------------|   
|-----------|-----------|------------|-------------|
|3----3-----|3----3-----|-/1----1----|/11----11----|




|3----5p3---|3----5p3---|3----5p3---|3----3-----|
|--0------0-|--0------0-|--0------0-|--0------0-|
|-----------|-----------|-----------|-----------|
|-----------|-----------|-----------|-----------|
|-----------|-----------|-----------|-----------|
|3----3-----|3----3-----|3----3-----|3----3-----|




      
              Non  vivo  in  me           
|/6----6----|6----6----|/5----5----|5----5----|
|----0---0--|---0---0--|----0---0--|---0---0--|
|-----------|----------|-----------|----------|
|-----------|----------|-----------|----------|
|-----------|----------|-----------|----------|
|/6----6----|6----6----|/5----5----|5----5----|





              non  so  chi  sei
|/6----6----|6----6----|/5----5----|5----5----|
|----0---0--|---0---0--|----0---0--|---0---0--|
|-----------|----------|-----------|----------|
|-----------|----------|-----------|----------|
|-----------|----------|-----------|----------|
|/6----6----|6----6----|/5----5----|5----5----|




   
            Denti  per  tre io  non ho piu'
|/8----8----|8----8----|/3----3----|3----3----|
|----0---0--|---0---0--|----0---0--|---0---0--|
|-----------|----------|-----------|----------|
|-----------|----------|-----------|----------|
|-----------|----------|-----------|----------|
|/8----8----|8----8----|/3----3----|3----3----|



       
                 mi   accigliero'
|/11----11----|11----11----|/10----10----|10----10----|
|-----0----0--|----0----0--|-----0----0--|----0----0--|
|-------------|------------|-------------|------------|
|-------------|------------|-------------|------------|
|-------------|------------|-------------|------------|
|/11----11----|11----11----|/10----10----|10----10----|






|3----5p3---|3----5p3---|3----5p3---|3----3-----|
|--0------0-|--0------0-|--0------0-|--0------0-|
|-----------|-----------|-----------|-----------|
|-----------|-----------|-----------|-----------|
|-----------|-----------|-----------|-----------|
|3----3-----|3----3-----|3----3-----|3----3-----|




      
              Dosi  mai  piu'        
|/6----6----|6----6----|/5----5----|5----5----|
|----0---0--|---0---0--|----0---0--|---0---0--|
|-----------|----------|-----------|----------|
|-----------|----------|-----------|----------|
|-----------|----------|-----------|----------|
|/6----6----|6----6----|/5----5----|5----5----|





               rimani   giu'
|/6----6----|6----6----|/5----5----|5----5----|
|----0---0--|---0---0--|----0---0--|---0---0--|
|-----------|----------|-----------|----------|
|-----------|----------|-----------|----------|
|-----------|----------|-----------|----------|
|/6----6----|6----6----|/5----5----|5----5----|




   
            Forse  a  Gesu'  non  crederei
|/8----8----|8----8----|/3----3----|3----3----|
|----0---0--|---0---0--|----0---0--|---0---0--|
|-----------|----------|-----------|----------|
|-----------|----------|-----------|----------|
|-----------|----------|-----------|----------|
|/8----8----|8----8----|/3----3----|3----3----|



       
                 se  fosse  qua
|/11----11----|11----11----|/10----10----|10----10----|
|-----0----0--|----0----0--|-----0----0--|----0----0--|
|-------------|------------|-------------|------------|
|-------------|------------|-------------|------------|
|-------------|------------|-------------|------------|
|/11----11----|11----11----|/10----10----|10----10----|






  l'inferno             in  me
|/8----8----|8----8----|/6----6----|6----6----|
|----0---0--|---0---0--|----0---0--|---0---0--|
|-----------|----------|-----------|----------|
|-----------|----------|-----------|----------|
|-----------|----------|-----------|----------|
|/8----8----|8----8----|/6----6----|6----6----|






               va in fiamme  ormai
|/11----11----|11----11----|/10----10----|10----10----|
|-----0----0--|----0----0--|-----0----0--|----0----0--|
|-------------|------------|-------------|------------|
|-------------|------------|-------------|------------|
|-------------|------------|-------------|------------|
|/11----11----|11----11----|/10----10----|10----10----|







|3----5p3---|3----5p3---|3----5p3---|5p3----5p3---|
|--0------0-|--0------0-|--0------0-|----0------0-|
|-----------|-----------|-----------|-------------|
|-----------|-----------|-----------|-------------|
|-----------|-----------|-----------|-------------|
|3----3-----|3----3-----|3----3-----|3------3-----|






|/6----6---|/5----5---|/8----8---|/3----3---|/11---11---|/10---10---|/8-----8---|8----8---|
|----0---0-|----0---0-|---0----0-|---0----0-|----0----0-|----0----0-|----0----0-|--0----0-|
|----------|----------|----------|----------|-----------|-----------|-----------|---------|   x 2
|----------|----------|----------|----------|-----------|-----------|-----------|---------|
|----------|----------|----------|----------|-----------|-----------|-----------|---------|
|/6----6---|/5----5---|/8----8---|/3----3---|/11---11---|/10---10---|/8-----8---|8----8---|







               Razzi    arpia  ai  danni  miei                piu'  che  mai  danni  miei
|/6----6----|6----6----|/3----3----|3----3----|/5----5----|5----5----|/3----3----|3----3----|
|----0---0--|---0---0--|----0---0--|---0---0--|----0---0--|---0---0--|----0---0--|---0---0--|
|-----------|----------|-----------|----------|-----------|----------|-----------|----------|
|-----------|----------|-----------|----------|-----------|----------|-----------|----------|
|-----------|----------|-----------|----------|-----------|----------|-----------|----------|
|/6----6----|6----6----|/3----3----|3----3----|/5----5----|5----5----|/3----3----|3----3----|






              Pause    nel  tempo  riavrai        mentre  la  mente e'  in  orbita
|/6----6----|6----6----|/3----3----|3----3----|/5----5----|5----5----|/3----3----|3----3----|
|----0---0--|---0---0--|----0---0--|---0---0--|----0---0--|---0---0--|----0---0--|---0---0--|
|-----------|----------|-----------|----------|-----------|----------|-----------|----------|
|-----------|----------|-----------|----------|-----------|----------|-----------|----------|
|-----------|----------|-----------|----------|-----------|----------|-----------|----------|
|/6----6----|6----6----|/3----3----|3----3----|/5----5----|5----5----|/3----3----|3----3----|








|---------|---------|----------|----------|----------|-----------|3----3---|3----3---|
|6----6---|6----6---|/5----5---|5----5----|/4----4---|4----4-----|--0----0-|--0----0-|
|--0----0-|--0----0-|--0----0--|--0----0--|--0----0--|--0----0---|---------|---------|    x 2
|---------|---------|----------|----------|----------|-----------|---------|---------|
|5----5---|5----5---|/4----4---|4----4----|/3----3---|3----3-----|---------|---------|
|---------|---------|----------|----------|----------|-----------|3----3---|3----3---|






|-----------|-----------|------------|------------|------------|-----------|
|6----6-----|6----6-----|/5----5-----|5----5------|/4----4-----|4----4-----|
|--0----0---|--0----0---|--0----0----|--0----0----|--0----0----|--0----0---|
|-----------|-----------|------------|------------|------------|-----------|
|5----5-----|5----5-----|/4----4-----|4----4------|/3----3-----|3----3-----|
|-----------|-----------|------------|------------|------------|-----------|







|3----5p3---|3----5p3---|3----5p3---|5p3----5p3---|-/1----1----|/11----11----|
|--0------0-|--0------0-|--0------0-|----0------0-|----0----0--|----0-----0--|
|-----------|-----------|-----------|-------------|------------|-------------|
|-----------|-----------|-----------|-------------|------------|-------------|
|-----------|-----------|-----------|-------------|------------|-------------|
|3----3-----|3----3-----|3----3-----|3------3-----|-/1----1----|/11----11----|








|3----5p3---|3----5p3---|-/1----1----|/11----11----|
|--0------0-|--0------0-|----0----0--|----0-----0--|
|-----------|-----------|------------|-------------|       x 3
|-----------|-----------|------------|-------------|   
|-----------|-----------|------------|-------------|
|3----3-----|3----3-----|-/1----1----|/11----11----|





Comments


Popular Verdena tabs & chords
Balanite Bass Tabs
Caramelpop Bass Tabs
Dentro Sharon 1 Bass Tabs
Luna 1 Bass Tabs
Memobox 1 Bass Tabs
Starless 3 Bass Tabs
Valvonauta 3 Bass Tabs
Angie Chords
Sotto Prescrizione Del Dottor Huxley Chords
Vera Ukulele


Song lyrics



↑ Back to top | Tablatures and chords are parodies/interpretations of the original songs. You may use it for private study, scholarship, research or language learning purposes only
© 2014 AZChords.com Contact us | Privacy policy | DMCA | Add/correct tabs | Request tabs | Top 50 tabs