» » »

Verdena, Solo Un Grande Sasso Tabs (ver.1)

Artists:  A B C D E F G H I J K L M N O P Q R S T U V W X Y Z # 

Solo Un Grande Sasso Tabs (ver.1)

Verdena Tabs
 Rating:
4/5 (4 votes)
Solo Un Grande Sasso lessons Tabs too difficult? Try these video lessons and learn fast
                VERDENA - SOLO UN GRANDE SASSO (Album completo)

Ecco le BASS TAB di tutte le canzoni dell'album, tranne ovviamente "la tua fretta", dove non c'?
il basso. Sono tutte scritte da me (viste suonare dal vivo
o basate su tabs x chitarra o trovate qua e l? per il web), tranne "Meduse e tappeti", che ? un
adattamento grafico della tab scritta da OMEGAIORI (che ringrazio).
Divertitevi!!

**********************************************************************************************************
BRANO 2 : SPACEMAN

INTRO 1:Niente basso

INTRO 2:
1|-------------------------------------------------------------------|
2|-------------------------------------------------------------------|
3|--12-12-12-12-12-12-12-12-15-15-15-15-15-15-15-15-33333333-5555555-|
4|-------------------------------------------------------------------|

VERSO:
1|-----------------|
2|-----------------|
3|--3--3--3-3/5----|
4|-----------------|

OUTRO (lascia suonare tutte le note):
1|-------------|-------------|----------|-------------|
2|-------------|-------------|----------|-------------|
3|----------15-|---------12p9|-----3----|--12-------15|
4|-------------|-------------|----------|-------------|


**********************************************************************************************************

BRANO 3 : NOVA

Fig.1
           (la 2a v. x2)                                    (x1)
1|----------------------------------------------------|--------------------|
2|----------------------------------------------------|--------------------|
3|-----6666666666666666/8-/666666/88888-333333-5555555|-0--0-0--7-7-0--0---|
4|----------------------------------------------------|--------------------|

Verso:
1|---------------------------|
2|---------------------------|
3|-------777------7/10-10----|(ripetuto 1 sacco di volte)
4|---000------000------------|

Rit.
1|------------------------------------------|-------------------|
2|------------------------------------------|-------------------|
3|--77777779999999912-12-12-12-12-12-12-12--|-55555555-77777777-|
4|------------------------------------------|-------------------|

Verso

Rit.

Fig.1

Assolo:
1|----------------------------------|
2|----------------------------------|
3|------3-------3-------3----3-2-0--|(anche questo rip.molte volte)
4|---00------00------00-------------|

Penultimo verso:
1|--------------|
2|--------------|
3|-----3-----3--|
4|--000---000---|

Ultimo verso (non attacca subito)


**********************************************************************************************************


BRANO 4 : CARA PRUDENZA

abbassare l'accordatura di 1/2 tono

main riff (intro,rit.e guitar solo):
    (x 1)                  (x 3)
1|-----------|------------------------------------|
2|-----------|------------------------------------|
3|--10/3-5-3-|-3--3/5-7-5--5--10----10/3-5-3--3--3|
4|-----------|------------------------------------|
(NOTA:l'alternanza e il n.di volte delle parti cambia nell'assolo e nell'ultimo rit.
Basta ascoltare il disco x capire come suonarli.)

Fill 1 (tra intro e verso):
1|-----------|
2|-----------|
3|-10-10-10--|
4|-----------|

Verso:
1|----------|
2|----------|ripetuto x tutta la strofa
3|-10---7---|
4|-12-0-9-0-|
  x3   x3 (le parti ripetute 3v.vanno suonate molto velocemente, anche qui
           ascoltate l'originale)

Fill 2 (tra verso e rit.)
1|--------------------|
2|--------------------|
3|--------------------|
4|--12-----------12---|

**********************************************************************************************************


BRANO 5 : ONAN

Abbassare l'accordatura di 1/2 tono

Verso:
1|----------------------------|
2|----------------------------|
3|----------7-----------------|
4|---5-5-7--------9--9--9--12-|
 (a tempo della batteria)

Primi 2 rit.:
1|------------------------|
2|------------------------|
3|------------------------|
4|-5-----7-----5-5-7---7--|

Parte veloce e ultimi 2 rit.:
1|-------------------------------|
2|-------------------------------|
3|-------------------------------|
4|-5555--7777--9999--12 12 12 12-|

**********************************************************************************************************


BRANO 6 : STARLESS

abbassare l'accordatura di 1/2 tono

riff1:
1|---------------|
2|--10p9---------|
3|---------------|
4|-0------0--8/10|

Finale verso:
1|---------------------------------|
2|---------------------------------|
3|-3-3-3-3-3-3-3-3-3-3-5-5-5-5-5-5-|
4|---------------------------------|

Post-verso:
A)

1|----------------------------------------------------------|
2|---------------------------------------------------7/9----|
3|----7-----9/10---9-----10/12------7-----9/10---9----------|
4|-0----0-0------0---0-0---------0----0-0------0---0--------|

B)

1|-----------------------------------------------------------|
2|------------------------------------------------12---------|
3|----7------9/10---9-----10/12-----7-----9/10--------12-----|
4|-0----0-0-------0---0-0---------0---0-0------0-------------|

Coda:    ....sunchild....
1|-----------------------------|
2|-----------------------------|
3|--7--7--5--9--7--5--9--7--9--|(x3)
4|-----------------------------|(ogni nota va fatta 3v.)

1|-----------------|
2|-----------------|
3|-7-5-7-5-7-5-7-5-|
4|-----------------|

STRUTTURA:

Entra con la batteria: riff 1 x 9

Fin.verso

Riff 1 x 9

Fin.verso

Post-verso A

Post-verso B

Post-verso A x 2

Break: solo chitarra

Bridge: ripeti riff 1 fino a 5:17 di durata(attenzione al piccolo break)

Coda

Outro: solo chitarra


**********************************************************************************************************


BRANO 7 : MIAMI SAFARI

Abbassare l'accordatura di 1/2 tono

VERSO:
4|--5-5----5/9--9-5--|(ripetuto x tutta la strofa)

PRE-RITORNELLO:
3|--9-9-9-3-3-3-3-9-9-9-9-9-9---9-9-9-3-3-3-3-9-9-9-12-12-12|

RITORNELLO:
3|--5-5--5-5--5-5--5-5-|

ASSOLO:
                               ultime 3 volte
4|--9--9--9---9-9--9--9-|   4|--5--5--5---5-5--5--5-|


**********************************************************************************************************


BRANO 8 : NEL MIO LETTO

Verso 1:
    C  Am   G        Dm  Am      Dm         G
1|----------------------------------------------|
2|----------------------------------------------|
3|--3---0---2---------5---0-------5---------2---|
4|----------------------------------------------|
...? me-meglio......che ci sia...un'ora in pi?
...io...dormo......e giudico.....le ombre su di noi

Ritornello:
   Am        G      C          Am        G       C        D      C
1|-------------------------------------------------------------------|
2|-------------------------------------------------------------------|(x 2)
3|--0--------2------3-----------0--------2-------3--------5------3---|
4|-------------------------------------------------------------------|
...e   non  ho...pi? fretta....e non ho pi?  fretta perch? ho  paura

Verso 2: cambiano solo le parole

Ritornello

Guitar solo: ripeti il riff del verso(senza far caso alla chitarra)

Ritornello


**********************************************************************************************************

BRANO 9 : 1000 ANNI CON ELIDE

INTRO:
1|---------------------------------------|
2|---------4---------4---------4-----4---|
3|---6-6-6-----6-6-6------6-6-6--6-4-----|
4|---------------------------------------|

STROFA:(variazione dell'intro)
1|--------------------------------------------------------|
2|---------4----------------4---------------4-----4-------|
3|---6-6-6---6-6-6----6-6-6---6-6-6----6-6-6---6-4--6-4-4-|
4|--------------------------------------------------------|

FINALE STROFA:
1|---------------------------|
2|---------------------------|
3|---------8888888899999999--|
4|---------------------------|

RIT.
1|---------------------------------|
2|---------------------------------|
3|----99999999-77777777-66666666---|
4|---------------------------------|

BRIDGE:
1|--------------------------------|
2|--------------------------------|
3|--------------------------------|
4|----4h6-6-6---6-6-6-6-----------|

CODA:
1|---------------------------------------|
2|---------------------------------------|
3|---66666666-99999999-99999999-66666666-|
4|---------------------------------------|

OUTRO:solo chitarra

**********************************************************************************************************

BRANO 10 : BUONA RISPOSTA

Accordatura 1/2 tono sotto il normale

Intro:solo chitarra

Verse:
4|--3-3-3---3--3--|

Chorus/assolo/coda:

1|---------------|
2|---------------|
3|---2-5-5-------|
4|---------2-3-3-|

**********************************************************************************************************


BRANO 11 : CENTRIFUGA

Intro e verso:
1|--------------------------------|
2|--------------------------------|
3|------------5555-8888-----------|
4|----------------------6666-5555-|

Post-verso:
3|-77777-7777777777-|

Verso

Post-verso

Rit.:
3|-8-8-8-8-8-8-10-10-10-10-10-10-12-12-12-12--12-12-12-12/15-15-15---|(x 2)

Assolo 1:
3|--7-7-7-8-5--5-8--8-5-5-|

Verso

Post-verso

Rit.

Assolo 2:
3|--7-7-7-8-5--5-8--8-8-8-|

Bridge strumentale:
1|--------------|
2|----------12*-|x 2 quindi:
3|--5--5--------|
4|--------------|

3|--8-8-7--7-7--5-5-10-8-| fino all' ultimo rit.

"*" = vibrato

**********************************************************************************************************

BRANO 12 : MEDUSE E TAPPETI

Verso:

1|------------------------------------------------------------------------------------------|
2|------------------------------------------------------------------------------------------|
3|-------------------------------10*-9-7-----------------------------------10/12\10--9/10\9-|
4|--0-0-0--1-1-1-1--8-8-8-8--------------0----0-0-0--1-1-1-1--8-8-8-8-----------------------|
  "*" = vibrato

Ritornello:

1|--------------------------------------------|
2|--------------------------------------------|
3|----3-3-2-2-2-3-3-2---3-3-3-3-3/5---5555555-|
4|--------------------------------------------|

**********************************************************************************************************
            
Submit corrections

comments powered by Disqus
↑ Back to top | Verdena Tabs for Solo Un Grande Sasso. Lyrics for acoustic guitar and electric guitar. Tablatures and chords are parodies/interpretations of the original songs. You may use it for private study, scholarship, research or language learning purposes only