» » »

House Of Pain Tabs (ver.1)

Artists:  A B C D E F G H I J K L M N O P Q R S T U V W X Y Z # 

House Of Pain Tabs (ver.1)

Venom
Rating:
0/5 (0 votes)

Hard to play? Try these video lessons and learn fast.
                (Intro)



  . . . . . . . PH .
E-2-2-2-2-2-2-2----2------------------------------|
A---------------5^--------------------------------|
D-------------------------------------------------|
G-------------------------------------------------|
B-------------------------------------------------|
E-------------------------------------------------|
  . . . . .
E-2-2-2-2-2-----0-0-0-----------------------------|
A---------------2-2-2-----------------------------|
D---------------2-2-2-----------------------------|
G-------------------------------------------------|
B-------------------------------------------------|
E-------------------------------------------------|


PH- Pinch Harmonic
. - Palm Mute
^ - Bend
            
Hard to play? Try these video lessons and learn fast. | Correct




comments powered by Disqus
↑ Back to top | Tablatures and chords are parodies/interpretations of the original songs. You may use it for private study, scholarship, research or language learning purposes only