» » »

House Of Pain Tabs (ver.2)

Artists:  A B C D E F G H I J K L M N O P Q R S T U V W X Y Z # 

House Of Pain Tabs (ver.2)

Venom
Rating:
0/5 (0 votes)

Hard to play? Try these video lessons and learn fast.
                Venom
 House of Pain


^....pinch harmonic bend
~....vibrato
'.... palm mute

These two repeats 3 times
---------------------------------------------------------|
---------------------------------------------------------|
---------------------------------------------------------|
---------------------------------------------------------|
2222222252----222252-3^~~~~-2222222252----2222-3-3-3-----|
0000000030----000030--------0000000030----0000-1-1-1-----|
''''''''      ''''''        ''''''''      '''' ' ' '

---------------------------------------------------------|
---------------------------------------------------------|
---------------------------------------------------------|
---------------------------------------------------------|
2222222252----222252-3^~~~~-2222222252----3-3-3-3-3-3----|
0000000030----000030--------0000000030----1-1-1-1-1-1----|
''''''''      ''''''        ''''''''      ' ' ' ' ' '
Pre Chours

---------------------------------|
---------------------------------|
-4--4--4--4---4---4--4--4-444452-|
-2--2--2--2---2---2--2--2-222230-|
-2--2--2--2---2---2--2--2-222230-|
2-22-22-22-222---2-22-22-2-------|
0-00-00-00-000---0-00-00-0-------|
' '' '' '' '''   ' '' '' '''''
--------------------------------|
--------------------------------|
-4--4--4--4---4---4--4--4444452-|
-2--2--2--2---2---2--2--2222230-|
-2--2--2--2---2---2--2--2222230-|
2-22-22-22-222---2-22-22--------|
0-00-00-00-000---0-00-00--------|
' '' '' '' '''   ' '' '''


Chours (play 3 times)
----------------------------------------|
----------------------------------------|
-----------------------------7-8-9------|
-----------------------------5-6-7------|
222222--222222--222222--9-8-7-----------|
000000--000000--000000--7-6-5-----------|

I think this patern repaets throught but its
4 in the morning so i really don't care.
I could do the solo.. but again its 4 in the morning


METALLICA MOTHA f**kA!!!
            
Hard to play? Try these video lessons and learn fast. | Correct




comments powered by Disqus
↑ Back to top | Tablatures and chords are parodies/interpretations of the original songs. You may use it for private study, scholarship, research or language learning purposes only