» » »

Venom, House Of Pain Tabs (ver.3)

Artists:  A B C D E F G H I J K L M N O P Q R S T U V W X Y Z # 

House Of Pain Tabs (ver.3)

Venom Tabs
Rating:
0/5 (0 votes)
House Of Pain lessons Tabs too difficult? Try these video lessons and learn fast
                Venom - House of Pain
This is my first song by VENOM
BAND: VENOM
ALBUME: METAL BLACK
VENOM ARE: Cronos: Vocal& Bass
           Mykvs : Guitar & B/VOX
           Antton: Drums & B/VOX
 the tune is maybe EADGBE or BADGBE, try it out both tunes:D
^....pinch harmonic bend
~....vibrato
'.... palm mute
These two repeats 3 times
|-------------------------------------------------------------|
|-------------------------------------------------------------|
|-------------------------------------------------------------|
|-------------------------------------------------------------|
|22222222552----222252-3^-----22222222552----2222-3-3-3-------|
|00000000330----000030--------00000000330----0000-1-1-1-------|
''''''''      ''''''        ''''''''      '''' ' ' '
"I can hear you screaming" in 2nd the time

|---------------------------------------------------------|
|---------------------------------------------------------|
|---------------------------------------------------------|
|---------------------------------------------------------|
|2222222252----222252-3^-----2222222252----3-3-3-3-3-3----|
|0000000030----000030--------0000000030----1-1-1-1-1-1----|
''''''''      ''''''        ''''''''      ' ' ' ' ' '
Pre Chours

|---------------------------------|
|---------------------------------|
|-4--6--4--6---4---4----6^-444452-|
|-2--4--2--4---2---6----4---------|
|-2--4--2--4---2---6----4---------|
|-------------------2-2-----------|
|-------------------0-0-----------|
' '' '' '' '''   ' '' '' '''''
--------------------------------|
--------------------------------|
-4--4--4--4---4---4--4--4444452-|
-2--2--2--2---2---2--2--2222230-|
-2--2--2--2---2---2--2--2222230-|
2-22-22-22-222---2-22-22--------|
0-00-00-00-000---0-00-00--------|
' '' '' '' '''   ' '' '''


Chours (play 3 times)
----------------------------------------|
----------------------------------------|
-----------------------------7-8-9------|
-----------------------------5-6-7------|
222222--222222--222222--9-8-7-----------|
000000--000000--000000--7-6-5-----------|
            
Submit corrections

comments powered by Disqus
↑ Back to top | Venom Tabs for House Of Pain. Lyrics for acoustic guitar and electric guitar. Tablatures and chords are parodies/interpretations of the original songs. You may use it for private study, scholarship, research or language learning purposes only