>
 >
Superhuman 2

Superhuman 2 Guitar Tabs

Velvet Revolver - Superhuman 2 chords, tabs, tablatures, lyrics

Guitar lessons | Add/correct | Request | Top 50 tabs Artists:  A B C D E F G H I J K L M N O P Q R S T U V W X Y Z 0-9

Superhuman 2 Guitar Tabs – Velvet Revolver

CD, Sheet music, Poster

Do you like Superhuman 2? Share with your friends now
Bass TabsTabsTabs v2Tabs v3
Velvet Revolver
Contraband
"Superhuman"


                                    BPOOCH!!!!!!



>>    Live TUNING: C# G# C# Gb Bb Eb
>>    CD TUNING: D A D G B E



Intro:

Eb |-------------------------------------14----|
Bb |----13----15----15-13----13----15-13-------|
Gb |-------------------------------------------|  x6
C# |-12----12----12-------12----12-------------|
G# |-------------------------------------------|
C# |-------------------------------------------|



****  the sixth time you play the intro, you slide down from the 14th, at the end



Verse 1+2:

Eb |---------------------------|
Bb |---------------------------|
Gb |---5---7---7-5---5---7-5---|   x7
C# |-7---7---7-----7---7-------|
G# |-------------------------8-|
C# |---------------------------|



Pre-Chorus:

Eb |---------------------|        Eb |-------------------------------|
Bb |---------------------|        Bb |-------------------------------|
Gb |---------------------| x3     Gb |-------------------------------| x1
C# |-5-5h7-5h7-3-3h5-3h5-|        C# |-5-5h7-5h7-7/8\7/8\7/8---------|
G# |-5-5h7-5h7-3-3h5-3h5-|        G# |-5-5h7-5h7-7/8\7/8\7/8---------|
C# |-5-5h7-5h7-3-3h5-3h5-|        C# |-5-5h7-5h7-7/8\7/8\7/8---------|



Chorus:

Eb |--------------------------------------------------------|
Bb |--------------------------------------------------------|
Gb |--------------------------------------------------------|   x2
C# |--------------------------------------------------------|
G# |-0-0-x-0-0-x-0-0-x-0-0-x-3-2-3-0-0-x-0-0-x-0-0-5-3-5----|
C# |-0-0-x-0-0-x-0-0-x-0-0-x-3-2-3-0-0-x-0-0-x-0-0-5-3-5----|


Verse 3+4:

Eb |------------------------------|
Bb |------------------------------|
Gb |---5---7---7-5---5---7-5-8~---|
C# |-7---7---7-----7---7----------|
G# |------------------------------|
C# |------------------------------|



Pre-Chorus: same as first

Chorus: same as first

Solo:

Eb |------------------------------------------------------------------|
Bb |-19--19--19--19--19--19--19--19--18--18--18--18--18--18--18--18---|
Gb |---17--17--17--17--17--17--17--17--16--16--16--16--16--16--16--16-|
C# |------------------------------------------------------------------|
G# |------------------------------------------------------------------|
C# |------------------------------------------------------------------|

   |----------------------------------------------------------------------|                 
   |-19--19--19--19--19--19--19-----21-18--18--18--18--18--18--18---------|
   |---17--17--17--17--17--17--17/19-----16--16--16--16--16--16--16/22----|
   |----------------------------------------------------------------------|
   |----------------------------------------------------------------------|
   |----------------------------------------------------------------------|

   |------------------------------|
   |-24-24-24-24-24-24-24-24--24\-|
   |-22-22-22-22-22-22-22-22------|
   |------------------------------|
   |------------------------------|
   |------------------------------|



Riff 1:

Eb |-------------------------|      |-------------|
Bb |-------------------------|      |-------------|
Bb |-------------------------|  x3  |-0-0-5-0-5-7-|  x1
C# |-0-0-5-0-5-7-0-0-3-0-3-5-|      |-0-0-5-0-5-7-|
G# |-0-0-5-0-5-7-0-0-3-0-3-5-|      |-0-0-5-0-5-7-|
C# |-0-0-5-0-5-7-0-0-3-0-3-5-|



Riff 2:

(Slash)
                      (INTRO)
Eb |------||            |-------------------------------------14-|
Bb |------|| feedback   |----13----15----15-13----13----15-13----|
Gb |------||  thing     |----------------------------------------|  x2
C# |-0--0-||            |-12----12----12-------12----12----------|
G# |-0--0-||            |----------------------------------------|
C# |-0--0-||            |----------------------------------------|
          |             |
          |             | (these are played @ the same time twice)
(Dave)    |             |
          |             |
Eb |------||----------| |------------------------------------------|
Bb |------||----------| |------------------------------------------|
Gb |------||----------| |------------------------------------------| x2
C# |-0--0-||-7-10-8-7-| |-7777777-10101010101010108888888877777777-|
G# |-0--0-||----------| |------------------------------------------|
C# |-0--0-||-5--8-6-5-| |-5555555-8-8-8-8-8-8-8-8-6666666655555555-|



Intro: x3

Chorus: x2

****THEN SLASH PLAYS INTRO RIFF ONCE HIMSELF


____________________________________________________________________________

PRETTY SHURE THIS IS RIGHT. APPRECIATE IT! THIS TOOK A LONG TIME!



BPOOCH!!!!!!






HI ADAM, CAM, and Friends!





Comments


Popular Velvet Revolver tabs & chords
Dirty Little Thing 5 Bass Tabs
Fall To Pieces 1 Chords
Loving The Alien 1 Chords
Messages 1 Chords
Bodies Tabs
Do It For The Kids Tabs
For A Brother Tabs
Messages Tabs
Set Me Free Complete Tabs
You Got No Right (Intro) Tabs


Song lyrics



↑ Back to top | Tablatures and chords are parodies/interpretations of the original songs. You may use it for private study, scholarship, research or language learning purposes only
© 2014 AZChords.com Contact us | Privacy policy | DMCA | Add/correct tabs | Request tabs | Top 50 tabs