» » »

She Mine Tabs (ver.1)

Artists:  A B C D E F G H I J K L M N O P Q R S T U V W X Y Z # 

She Mine Tabs (ver.1)

Velvet Revolver
Rating:
0/5 (0 votes)

Hard to play? Try these video lessons and learn fast.
                
Tuning:standerd


intro/chorus (after feed back)     X2
e]--------------------------------------------------------------------------|
b]--------------------------------------------------------------------------|
g]--------------------------------------------------------------------------|
d]--------------------------------------------------------------------------|
a]-5-7xx5-7x8-7-5-7-xx5-7xx5-7x8-7-5-7--------------------------------------|
E]-3-5xx3-5x6-5-3-5-xx3-5xx3-5x6-5-3-5--------------------------------------|

x4 verse
e]---7---5------------------------------------------------------------------|
b]---------7-----8---7-5/7--------------------------------------------------|
g]-4---4-----4-4---4--------------------------------------------------------|
d]--------------------------------------------------------------------------|
a]--------------------------------------------------------------------------|
E]--------------------------------------------------------------------------|
pre-chorus x2
e]--------------------------------------------------------------------------|
b]--------------------------------------------------------------------------|
g]--------------------------------------------------------------------------|
d]---------------99999999---------------------------------------------------|
a]-10101010-9999-77777777---------------------------------------------------|
E]-8-8-8-8--7777------------------------------------------------------------|

chorus     x2
e]--------------------------------------------------------------------------|
b]--------------------------------------------------------------------------|
g]--------------------------------------------------------------------------|
d]--------------------------------------------------------------------------|
a]-5-7xx5-7x8-7-5-7-xx5-7xx5-7x6-7-5-7--------------------------------------|
E]-3-5xx3-5x6-5-3-5-xx3-5xx3-5x6-5-3-5--------------------------------------|


bridge  x3       let ring               let ring  (this leads into the solo)
e]-----------------------]--------------------------------------------------|
b]-----------------------]--------------------------------------------------|
g]-----------------------]--------------------------------------------------|
d]---------------7-------]--------------------------------------------------|
a]-333333-555555-5-------]-333333-555555-7----------------------------------|
E]-111111-333333---------]-111111-333333-5----------------------------------|

| /  slide up
| \  slide down
| h  hammer-on
| p  pull-off
| ~  vibrato
| +  harmonic
| x  Mute note
            
Hard to play? Try these video lessons and learn fast. | Correct




comments powered by Disqus
↑ Back to top | Tablatures and chords are parodies/interpretations of the original songs. You may use it for private study, scholarship, research or language learning purposes only