» » »

Velvet Revolver, Loving The Alien Tabs (ver.1)

Artists:  A B C D E F G H I J K L M N O P Q R S T U V W X Y Z # 

Loving The Alien Tabs (ver.1)

Velvet Revolver Tabs
 Rating:
4/5 (4 votes)
Loving The Alien lessons Tabs too difficult? Try these video lessons and learn fast
                Velvet Revolver
Contraband



Verse: One of the guitars play the rhythm, while
       the other guitar pulls over the chords, 
       and let them ring.

C                             Am
Sometimes I think I'm scared, sometimes I know.
Em                       G
I feel like making love, sometimes I don't.
C                       Am
I feel like letting go, maybe not.
Em                     G
I feel like giving up, is all we got.


Chorus:

F            G                 F           G
Sometimes is all the time, and never means maybe.
F            G 
Sometimes is all the time,
C                     G
maybe, and I'm moving on, 
   C                  G
       and I'm moving on, (sometimes I feel alone), 
   C                  G   C                 G 
       and I'm moving on,    and I'm moving on.

E------8--------8-7-5---------5--/--7----------|
B----6-----------------8-7-5-------------------|
G----------------------------------------------| x3
D----------------------------------------------|
A----------------------------------------------|
E----------------------------------------------|

E----15-12-13-12----15-12-13-12----15-12-13-12----12-13-15-12----|
B----------------------------------------------------------------|
G----------------------------------------------------------------| x7
D----------------------------------------------------------------|
A----------------------------------------------------------------|
E----------------------------------------------------------------|

E----15-12-13-12----15-12----------------------------------------|
B-------------------------15b17r15-------------------------------|
G----------------------------------------------------------------|
D----------------------------------------------------------------|
A----------------------------------------------------------------|
E----------------------------------------------------------------|


Verse: Do the same here, on this verse, but here there's also
       a  third guitar playing.

C                         Am
Sometimes I make believe, when we're alone.
Em                        G                        
Machines have taken hold. Can you get me to a telephone?
C                            Am
It's just the little things, you used to see.
Em                      G      
Am I still that man who makes you who you want to be?

E---------------|---------------|---------------|------------|
B-------\-13----|----12-\-10----|----10-/-12----|----/-15----|
G---------------|---------------|---------------|------------|
D---------------|---------------|---------------|------------|
A---------------|---------------|---------------|------------|
E---------------|---------------|---------------|------------|

E---------------|---------------|---------------|-------------------|
B----15-\-13----|----12-\-10----|----10-/-12----|----13-/-15b-b-b---|
G---------------|---------------|---------------|-------------------|
D---------------|---------------|---------------|-------------------|
A---------------|---------------|---------------|-------------------|
E---------------|---------------|---------------|-------------------|


Chorus:

F            G                 F           G
Sometimes is all the time, and never means maybe.
F            G 
Sometimes is all the time,
C                     G
maybe, and I'm moving on, 
   C                  G
       and I'm moving on, (sometimes I feel alone), 
   C                  G   C                 G 
       and I'm moving on,    and I'm moving on.

E------8--------8-7-5---------5--/--7----------|
B----6-----------------8-7-5-------------------|
G----------------------------------------------| x3
D----------------------------------------------|
A----------------------------------------------|
E----------------------------------------------|

E----15-12-13-12----15-12-13-12----15-12-13-12----12-13-15-12----|
B----------------------------------------------------------------|
G----------------------------------------------------------------| x7
D----------------------------------------------------------------|
A----------------------------------------------------------------|
E----------------------------------------------------------------|

E----15-12-13-12----15-12----------------------------------------|
B-------------------------15-------------------------------------|
G----------------------------------------------------------------|
D----------------------------------------------------------------|
A----------------------------------------------------------------|
E----------------------------------------------------------------|


Bridge:

D       C            G                       G
I never noticed. How lovely were the aliens? Lovely were the aliens. 
D       C            G                       G
I never noticed. How lovely were the aliens? Lovely were the aliens.

E------------------------------------------------------------|
B------------------------------------------------------------|
G------------7-9---------------------7-----------------------|
D----------------7-9--------10----10---10p7------------------|
A--7h9---------------7-9--7-----------------10p7-------------|
E------10------------------------------------------10--------|

E------------------------------------------------------------|
B------------------------------------------------------------|
G-------------------------------------------7-9-----7--------|
D--9h10p9-\-7h9p7------7----------------7-9-----7-9----------|
A-----------------10-----9p7----------7----------------------|
E----------------------------10----10------------------------|

E------------------------------------------------------------|
B-----------------------------------8------------------------|
G--7h9-------7h9-------7h9------------7-10-7-10-9-7----7-----|
D------9p7-------9p7-------9p7----------------------10-------|
A------------------------------------------------------------|
E------------------------------------------------------------|

E------------------------------------------------------------|
B--8-----8-------8-/10-\-8-----8-----------------------------|
G----7-----7---7-----------7-----7------7-7---9-7------------|
D-------------------------------------9-----------9-7---7-7--|
A-----------------------------------------------------9------|
E------------------------------------------------------------|


Solo: I think this solo is almost 100% correct, except a little bit
      in the end. Awesome solo. The chords are the same as in the 
      bridge.

E--------------------|--------------------------|-------------------|
B----------------19--|--19-19---------------19--|--19-19------------|
G--------19-19-------|--------21-19-19-21-------|--------19-21------|
D--19-21-------------|--------------------------|--------------19---|
A--------------------|--------------------------|-------------------|
E--------------------|--------------------------|-------------------|

E-----------------------------------|-------------------------------|
B-----------------------------------|-------------------------------|
G-----------------------------------|-------------------------------|
D--21-21-21--\--19-19-19--\--17-17--|--17---21p19--17-19-17-16------|
A-----------------------------------|-------------------------------|
E-----------------------------------|-------------------------------|

E-----------------------------------|--5~~---8-------8-5~~---8------|
B-----------------------------------|----------8~~-------------8~~--|
G-----------------------------------|-------------------------------|
D--17-16-14-16-14--12-10-9-7-5-7~~--|-------------------------------|
A-----------------------------------|-------------------------------|
E-----------------------------------|-------------------------------|

E--8-5~~---8------|-------------------------|-----------------------|
B------------8~~--|--7-/-8-5-5~~------------|-----------------------|
G-----------------|----------------5h7-4~~--|----------------4------|
D-----------------|-------------------------|----7------5--7--------|
A-----------------|-------------------------|-----------------------|
E-----------------|-------------------------|-----------------------|

E---------------------------------8h10p8----10h12p10----12h15-------|
B----5h8----8h10p8----10h12p10--------------------------------------|
G--7----------------------------------------------------------------|
D-------------------------------------------------------------------|
A-------------------------------------------------------------------|
E-------------------------------------------------------------------|

E--22--20--19--20-20~~---------19h20p19~~---------------------------|
B-------------------------------------------------------------------|
G-------------------------------------------------------------------|
D-------------------------------------------------------------------|
A-------------------------------------------------------------------|
E-------------------------------------------------------------------|


Chorus:
 
   C                  G   C                 G 
       And I'm moving on,    and I'm moving on,   (sometimes I feel alone), 
   C                  G   C                 G 
       and I'm moving on,    and I'm moving on,   (sometimes I feel alone), 
   C                  G   C                 G 
       and I'm moving on,    and I'm moving on,
   C                  
       and I'm moving on,    and I'm moving on,

       and I'm moving on,    and I'm moving on.


E----15-12-13-12----15-12-13-12----15-12-13-12----12-13-15-12----|
B----------------------------------------------------------------|
G----This is played about 24 times, and it's played until the----| 
D----whole song has faded out. In the end, it goes a little -----|
A----than in the beginning.--------------------------------------|
E----------------------------------------------------------------|

__________________________________________________________________
            
Submit corrections

comments powered by Disqus
↑ Back to top | Velvet Revolver Tabs for Loving The Alien. Lyrics for acoustic guitar and electric guitar. Tablatures and chords are parodies/interpretations of the original songs. You may use it for private study, scholarship, research or language learning purposes only